PrimaNota.ru - самый крупный в мире бесплатный архив песенных текстов, аккордов, табулатур и нот


Frank Sinatra - All My Tomorrows - текст песни, бас-таба, видео

Регистрация Запомнить меня
Войти через:  Facebook Google Twitter Vk Yandex Mail.ru

Frank Sinatra - All My Tomorrows - текст песни, бас-таба, видео

Печатать
Просмотров: 127
Авторы: Sammy Cahn, Jimmy Van Heusen

frank sinatra_all my tomorrows

TablEdited by Jan Bjorklund    jani_bjorklund@yahoo.se>
You are welcome to request for tabs!
Fingering and positions as suggested by TablEdit, please use common sense.


TablEdited by Jan Bjorklund
Tuning : E A D G 	Time Signature: 4/4

  |               |               |               |
|----------------------------------------------------------------|
|3---------------------------------------------------------------|
|--------------------------------3-------------------------------|
|----------------------------------------------------------1-----|

  |               |               |               |
|----------------------------------------------------------------|
|--------------------------------4-------------------------------|
|2---------------------------------------------------------------|
|----------------------------------------------------------------|

  |               |               |               |
|----------------------------------------------------------------|
|--------------------------------2-------------------------------|
|1-----------------------------------------------1---------1-----|
|----------------------------------------------------------------|

  |               |               |               |
|----------------------------------------------------------------|
|--------------------------------2-------------------------------|
|0---------------------------------------------------------0-----|
|----------------------------------------------------------------|

  |               |               |               |
|----------------------------------------------------------------|
|--------------------------------2-------------------------------|
|2---------------------------------------------------------------|
|----------------------------------------------------------------|

  |               |               |               |
|----------------------------------------------------------------|
|--------------------------------0-------------------------------|
|0-------------------------0-------------------------------1-----|
|----------------------------------------------------------------|

  |               |               |               |
|----------------------------------------------------------------|
|--------------------------------2-------------------------------|
|2---------------------------------------------------------------|
|----------------------------------------------------------------|

  |               |               |               |
|----------------------------------------------------------------|
|--------------------------------2-------------------------------|
|0---------------------------------------------------------0-----|
|----------------------------------------------------------------|

  |               |               |               |
|--------------------------5-----10--------5---------------------|
|3-----------------------------------------------3---------------|
|----------------------------------------------------------------|
|----------------------------------------------------------------|

  |               |               |               |
|----------------------------------------------------------------|
|----------------------------------------------------------------|
|2---------------------------------------------------------------|
|--------------------------------2-------------------------------|

  |               |               |               |
|----------------------------------------------------------------|
|--------------------------------2-------------------------------|
|1---------------------------------------------------------------|
|----------------------------------------------------------------|

  |               |               |               |
|----------------------------------------------------------------|
|--------------------------------2-------------------------------|
|0---------------------------------------------------------0-----|
|----------------------------------------------------------------|

  |               |               |               |
|----------------------------------------------------------------|
|--------------------------------2-------------------------------|
|2-------------------------2-------------------------------------|
|----------------------------------------------------------------|

  |               |               |               |
|----------------------------------------------------------------|
|--------------------------------0-------------------------------|
|0---------------------------------------------------------------|
|----------------------------------------------------------------|

  |               |               |               |
|0---------------1---------------0-------------------------------|
|----------------------------------------------------------------|
|----------------------------------------------------------------|
|----------------------------------------------------------------|

  |               |               |               |
|------------------------------------------------0---------------|
|----------------0---------------2-------------------------------|
|3---------------------------------------------------------------|
|----------------------------------------------------------------|

  |               |               |               |
|----------------0---------------3---------------5---------------|
|3---------------------------------------------------------------|
|----------3-------------------------------3---------------3-----|
|----------------------------------------------------------------|

  |               |               |               |
|0---------------------------------------------------------------|
|----------------4---------------2---------------0---------0-----|
|----------------------------------------------------------------|
|----------3-----------------------------------------------------|

  |               |               |               |
|----------------0-----------------------------------------------|
|------------------------------------------------4---------------|
|4-------------------------------3-------------------------------|
|----------------------------------------------------------------|

  |               |               |               |
|----------------2---------------4---------------7---------------|
|----------------------------------------------------------------|
|2---------------------------------------------------------------|
|----------------------------------------------------------------|

  |               |               |               |
|----------------------------------------------------------------|
|------------------------------------------------2---------------|
|0---------------2---------------3-------------------------0-----|
|----------------------------------------------------------------|

  |               |               |               |
|----------------------------------------------------------------|
|----------------1---------------2---------------2---------------|
|2---------------------------------------------------------------|
|--------------------------------------------0---------------0---|

  |               |               |               |
|----------------------------------------------------------------|
|----------------2-------------------------------2---------------|
|0---------0---------------------2-------------------------------|
|----------------------------------------------------------------|

  |               |               |               |
|----------------------------------------------------------------|
|----------------2-----------------------------------------------|
|0-------------------------------3---------------0---------------|
|----------0-----------------------------------------------0-----|

  |               |               |               |
|----------------------------------------------------------------|
|3---------------1---------------0-------------------------------|
|----------0-------------------------------------3---------------|
|----------------------------------------------------------------|

  |               |               |               |
|4---------------------------------------------------------------|
|--------------------------------0---------------4---------------|
|----------------2-----------------------------------------------|
|----------------------------------------------------------------|

  |               |               |               |
|----------------------------------------------------------------|
|----------------2-----------------------------------------------|
|1-------------------------------4---------------1---------------|
|----------------------------------------------------------------|

  |               |               |               |
|----------------------------------------------------------------|
|------------------------------------------------2---------------|
|0---------------2---------------3-------------------------------|
|----------------------------------------------------------------|

  |               |               |               |
|------------------------------------------------4---------------|
|----------------4---------------2-------------------------------|
|2---------2-------------------------------2---------------2-----|
|----------------------------------------------------------------|

  |               |               |               |
|------------------------------------------------2---------------|
|--------------------------------0-------------------------------|
|0---------0-----4-----------------------------------------------|
|----------------------------------------------------------------|

  |               |               |               |
|----------------------------------------------------------------|
|--------------------------------2---------------2---------------|
|2---------------2-----------------------------------------------|
|------------------------------------------0---------------------|

  |               |               |               |
|----------------------------------------------------------------|
|----------------------------------------------------------------|
|0-----------0---2---------------3---------3-----3---------------|
|----------------------------------------------------------------|

  |               |               |               |
|------------------------------------------------2---------------|
|--------------------------------0-------------------------------|
|0---------------0-----------------------------------------------|
|----------------------------------------------------------------|

  |               |               |               |
|0---------------2---------------4---------------7---------------|
|----------------------------------------------------------------|
|----------------------------------------------------------------|
|----------------------------------------------------------------|

  |               |               |               |
|12--------------7---------------4---------------0---------------|
|----------------------------------------------------------------|
|----------------------------------------------------------------|
|----------------------------------------------------------------|

  |               |               |               |
|----------------------------------------------------------------|
|------------------------------------------------3---------------|
|1---------1-----3---------------4-------------------------1-----|
|----------------------------------------------------------------|

  |               |               |               |
|----------------------------------------------------------------|
|3---------------1---------------0-------------------------------|
|------------------------------------------------3---------3-----|
|----------1-----------------------------------------------------|

  |               |               |               |
|----------------------------------------------------------------|
|--------------------------------0---------------4---------------|
|2---------2-----4-----------------------------------------2-----|
|----------------------------------------------------------------|

  |               |               |               |
|----------------------------------------------------------------|
|----------------2-----------------------------------------------|
|1-------------------------------4---------------1---------------|
|----------0-----------------------------------------------0-----|

  |               |               |               |
|----------------------------------------------------------------|
|------------------------------------------------2---------------|
|0---------------2---------------3-------------------------------|
|----------0-------------------------------0---------------0-----|

  |               |               |               |
|----------------------------------------------------------------|
|----------------1---------------2-------------------------------|
|2---------2-------------------------------------1---------------|
|------------------------------------------0---------------------|

  |               |               |               |
|------------------------------------------------2---------------|
|----------------2---------------0-------------------------------|
|0---------0-------------------------------0---------------0-----|
|----------------------------------------------------------------|

  |               |               |               |
|------------------------------------------------4---------------|
|----------------3---------------2-------------------------------|
|2-----------------------------------------2---------------2-----|
|----------------------------------------------------------------|

  |               |               |               |
|----------------------------------------------------------------|
|------------------------------------------------2---------------|
|0---------------2---------------3-------------------------------|
|----------------------------------------------------------------|

  |               |               |               |
|----------------0---------------2---------------5---------------|
|3---------------------------------------------------------------|
|----------------------------------------------------------------|
|----------------------------------------------------------------|

  |               |               |               |
|--------------------------------4-------------------------------|
|----------------4-------------------------------4---------------|
|2---------------------------------------------------------2-----|
|----------------------------------------------------------------|

  |               |               |               |
|----------------------------------------------------------------|
|------------------------------------------------2---------------|
|1---------------3---------------4-------------------------------|
|----------0-------------------------------0---------------0-----|

  |               |               |               |
|----------------------------------------------------------------|
|------------------------------------------------2---------------|
|0---------0-----2---------------3-------------------------0-----|
|----------------------------------------------------------------|

  |               |               |               |
|------------------------------------------------4---------------|
|----------------1---------------2-------------------------------|
|2-----------------------------------------2---------------2-----|
|----------------------------------------------------------------|

  |               |               |               |
|------------------------------------------------2---------------|
|--------------------------------0-------------------------------|
|0---------------4-------------------------0---------------0-----|
|----------------------------------------------------------------|

  |               |               |               |
|0---------------0---------------0---------0-----7---------------|
|----------------------------------------------------------------|
|----------------------------------------------------------------|
|----------------------------------------------------------------|

  |               |               |               |
|----------------0-----------------------------------------------|
|--------------------------------2-------------------------------|
|3-----------------------------------------------3---------------|
|----------3-----------------------------------------------3-----|

  |               |               |               |
|----------------5---------------3-------------------------------|
|3-----------------------------------------------3---------------|
|----------3-----------------------------------------------3-----|
|----------------------------------------------------------------|

  |               |               |               |
|0---------------2---------------4---------------7---------------|
|----------0-------------------------------0---------------0-----|
|----------------------------------------------------------------|
|----------------------------------------------------------------|

  |               |               |               |
|------------------------------------------------0---------------|
|----------------------------------------------------------------|
|4---------------4---------------3-------------------------------|
|------------------------------------------3---------------3-----|

  |               |               |               |
|----------------2---------------4---------------7---------------|
|----------------------------------------------------------------|
|2---------------------------------------------------------------|
|----------------------------------------------------------------|

  |               |               |               |
|----------------------------------------------------------------|
|------------------------------------------------2---------------|
|0---------0-----2---------------3-------------------------0-----|
|----------------------------------------------------------------|

  |               |               |               |
|----------------------------------------------------------------|
|----------------3---------------2---------------2---------------|
|2---------------------------------------------------------------|
|------------------------------------------------------------0---|

  |               |               |               |
|2---------------------------------------------------------------|
|----------------2-------------------------------2---------------|
|--------------------------------2-----------2-------------------|
|------------------------------------------------------------0---|

  |               |               |               |
|----------------------------------------------------------------|
|------------------------------------------------2---------------|
|0---------------2---------------3-------------------------------|
|----------------------------------------------------------------|

  |               |               |               |
|----------------0---------------2---------------5---------------|
|3---------------------------------------------------------------|
|----------------------------------------------------------------|
|----------------------------------------------------------------|

  |               |               |               |
|----------------------------------------------------------------|
|--------------------------------0---------------4---------------|
|2---------2-----4-----------------------------------------2-----|
|----------------------------------------------------------------|

  |               |               |               |
|--------------------------------3-------------------------------|
|----------------2-------------------------------2---------------|
|1---------------------------------------------------------1-----|
|----------------------------------------------------------------|

  |               |               |               |
|----------------------------------------------------------------|
|----------------2-----------------------------------------------|
|0-------------------------------3---------------0---------------|
|----------------------------------------------------------------|

  |               |               |               |
|------------------------------------------------4---------------|
|----------------4---------------2-------------------------------|
|2---------2-------------------------------2---------------2-----|
|----------------------------------------------------------------|

  |               |               |               |
|----------------------------------------------------------------|
|--------------------------------0---------0---------------------|
|0---------0-----4-------------------------------3---------------|
|----------------------------------------------------------------|

  |               |               |               |
|------------------------------------------------4---------------|
|----------------0---------------2-------------------------------|
|2-----------------------------------------2---------------2-----|
|----------------------------------------------------------------|

  |               |               |               |
|----------------------------------------------------------------|
|----------------------------------------------------------------|
|0-----------0---2-----------2---3---------3-----3---------------|
|----------------------------------------------------------------|

  |               |               |               |
|----------------------------------------------------------------|
|--------------------------------0---------------4---------------|
|0---------------0-----------------------------------------------|
|----------------------------------------------------------------|

  |               |               |               |
|0---------------1---------------2---------------3---------------|
|----------------------------------------------------------------|
|----------------------------------------------------------------|
|----------------------------------------------------------------|

  |               |               |               |
|4---------------5---------------6---------------7---------------|
|----------------------------------------------------------------|
|----------------------------------------------------------------|
|----------------------------------------------------------------|

  |               |               |               |
|----------------------------------------------------------------|
|----------------------------------------------------------------|
|----------------------------------------------------------------|
|----------------------------------------------------------------|

  |               |               |               |
|--------------------------5-----10--------5---------------------|
|3-----------------------------------------------3---------------|
|----------------------------------------------------------------|
|----------------------------------------------------------------|

  |               |               |               |
|----------------------------------------------------------------|
|----------------------------------------------------------------|
|2---------------------------------------------------------------|
|--------------------------------2-------------------------------|

  |               |               |               |
|----------------------------------------------------------------|
|--------------------------------2-------------------------------|
|1-----------------------------------------------1---------------|
|----------------------------------------------------------4-----|

  |               |               |               |
|----------------------------------------------------------------|
|--------------------------------2-------------------------------|
|0---------------------------------------------------------0-----|
|----------------------------------------------------------------|

  |               |               |               |
|----------------------------------------------------------------|
|--------------------------------2-------------------------------|
|2-------------------------2-------------------------------------|
|----------------------------------------------------------------|

  |               |               |               |
|----------------------------------------------------------------|
|--------------------------------0-------------------------------|
|0---------------------------------------------------------------|
|----------------------------------------------------------------|

  |               |               |               |
|----------------------------------------------------------------|
|--------------------------3-----2-------------------------------|
|2---------------------------------------------------------------|
|----------------------------------------------------------0-----|

  |               |               |               |
|----------------------------------------------------------------|
|--------------------------------2-------------------------4-----|
|0---------------------------------------------------------------|
|----------------------------------------------------------------|

  |               |               |               |
|--------------------------------5-------------------------------|
|3---------------------------------------------------------------|
|----------------------------------------------------------------|
|----------------------------------------------------------------|

  |               |               |               |
|----------------------------------------------------------------|
|--------------------------------4-------------------------------|
|2---------------------------------------------------------2-----|
|----------------------------------------------------------------|

  |               |               |               |
|----------------------------------------------------------------|
|----------------------------------------------------------------|
|1---------------------------------------------------------1-----|
|--------------------------------0-------------------------------|

  |               |               |               |
|----------------------------------------------------------------|
|--------------------------------2-------------------------------|
|0---------------------------------------------------------------|
|----------------------------------------------------------------|

  |               |               |               |
|----------------------------------------------------------------|
|--------------------------1-----2-------------------------------|
|2---------------------------------------------------------------|
|----------------------------------------------------------------|

  |               |               |               |
|----------------------------------------------------------------|
|--------------------------------0-------------------------------|
|0---------------------------------------------------------------|
|----------------------------------------------------------------|

  |               |               |               |
|0-------------------------------0-------------------------------|
|----------------------------------------------------------------|
|----------------------------------------------------------------|
|--------------------------3-------------------------------------|

  |               |               |               |
|------------------------------------------------0---------------|
|----------------0---------------2-------------------------------|
|3---------------------------------------------------------------|
|----------------------------------------------------------------|

  |               |               |               |
|----------------5---------------3-------------------------------|
|3-----------------------------------------------3---------------|
|----------3-----------------------------------------------3-----|
|----------------------------------------------------------------|

  |               |               |               |
|0---------------2---------------4---------------7---------------|
|----------0-------------------------------0---------------0-----|
|----------------------------------------------------------------|
|----------------------------------------------------------------|

  |               |               |               |
|6---------------0-------------------------------1---------------|
|----------------------------------------------------------------|
|--------------------------------3---------3---------------------|
|----------------------------------------------------------------|

  |               |               |               |
|----------------2---------------4---------------7---------------|
|----------0-------------------------------0---------------0-----|
|2---------------------------------------------------------------|
|----------------------------------------------------------------|

  |               |               |               |
|----------------------------------------------------------------|
|------------------------------------------------2---------------|
|0---------0-----2---------------3-------------------------0-----|
|----------------------------------------------------------------|

  |               |               |               |
|----------------------------------------------------------------|
|----------------1---------------2---------------2---------------|
|2---------2-----------------------------------------------------|
|----------------------------------------------------------------|

  |               |               |               |
|----------------------------------------------------------------|
|------------------------------------------------2---------------|
|0---------0-----0---------------2-------------------------------|
|------------------------------------------------------------0---|

  |               |               |               |
|----------------------------------------------------------------|
|------------------------------------------------2---------------|
|0---------------2---------------3-------------------------------|
|----------0-------------------------------0---------------0-----|

  |               |               |               |
|----------------0---------------2---------------5---------------|
|3---------------------------------------------------------------|
|----------------------------------------------------------------|
|----------------------------------------------------------------|

  |               |               |               |
|----------------------------------------------------------------|
|--------------------------------0---------------4---------------|
|2---------------4-----------------------------------------------|
|----------------------------------------------------------------|

  |               |               |               |
|----------------------------------------------------------------|
|----------------2-----------------------------------------------|
|1-------------------------------4---------------1---------------|
|----------0-----------------------------------------------0-----|

  |               |               |               |
|--------------------------------2-------------------------------|
|----------------2-------------------------------2---------------|
|0---------------------------------------------------------3-----|
|----------------------------------------------------------------|

  |               |               |               |
|----------------------------------------------------------------|
|----------------1---------------2---------------2---------------|
|2---------2-----------------------------------------------------|
|----------------------------------------------------------------|

  |               |               |               |
|----------------------------------------------------------------|
|----------------1---------------0-------------------------------|
|0-----------------------------------------------1---------------|
|----------------------------------------------------------------|

  |               |               |               |
|----------------------------------------------------------------|
|--------------------------------2---------------2---------------|
|2---------2-----2-----------------------------------------------|
|----------------------------------------------------------------|

  |               |               |               |
|--------------------------------5---------------0---------------|
|----------------------------------------------------------------|
|0-----------0---2-----------2-----------------------------------|
|----------------------------------------------------------------|

  |               |               |               |
|----------------------------------------------------------------|
|--------------------------------0---------0-----4---------------|
|0---------0-----0-----------------------------------------------|
|----------------------------------------------------------------|

  |               |               |               |
|0---------------2---------------4---------------7---------------|
|----------------------------------------------------------------|
|----------------------------------------------------------------|
|----------------------------------------------------------------|

  |               |               |               |
|0---------------2---------------4---------------7---------------|
|----------------------------------------------------------------|
|----------------------------------------------------------------|
|----------------------------------------------------------------|

  |               |               |               |
|0---------------4---------------5---------------6---------------|
|----------------------------------------------------------------|
|----------------------------------------------------------------|
|----------------------------------------------------------------|

  |               |               |               |
|7-------------------------0-------------------------------------|
|----------------------------------------------------------------|
|----------------------------------------------------------------|
|----------------------------------------------------------------|


Created with TablEdit http://www.tabledit.com/

     
Добавлено: 09.10.2013
Другие материалы по этой песне:
  • Аккорды и текст

Страница создана 28.05.2012
http://primanota.ru/frank-sinatra/all-my-tomorrows-chords.htm
Привет, Гость.
Предлагаем пройти революционный курс по гитаре.
Подарок от PrimaNota.Ru, забирай!