PrimaNota.ru - самый крупный в мире бесплатный архив песенных текстов, аккордов, табулатур и нот


Frank Sinatra - But Not For Me - текст песни, бас-таба, видео

Регистрация Запомнить меня
Войти через:  Facebook Google Twitter Vk Yandex Mail.ru

Frank Sinatra - But Not For Me - текст песни, бас-таба, видео

Печатать
Просмотров: 175
Авторы музыки: George Gershwin
Авторы текста: Ira Gershwin
frank sinatra_but not for me

TablEdited by Jan Bjorklund    jani_bjorklund@yahoo.se>
You are welcome to request for tabs!
Fingering and positions as suggested by TablEdit, please use common sense.


TablEdited by Jan Bjorklund
Tuning : E A D G 	Time Signature: 4/4

  |               |               |               |
|--------------------------------6-------------------------------|
|4---------------------------------------------------------------|
|----------------------------------------------------------------|
|----------------------------------------------------------------|

  |               |               |               |
|----------------------------------------------------------------|
|4---------------------------------------------------------------|
|--------------------------------2-------------------------------|
|----------------------------------------------------------------|

  |               |               |               |
|----------------------------------------------------------------|
|2---------------------------------------------------------------|
|--------------------------------0-------------------------------|
|----------------------------------------------------------------|

  |               |               |               |
|1---------------------------------------------------------------|
|----------------------------------------------------------3-----|
|--------------------------------4-------------------------------|
|--------------------------4-------------------------------------|

  |               |               |               |
|----------------------------------------------------------------|
|4---------------------------------------------------------------|
|--------------------------------4-------------------------------|
|----------------------------------------------------------2-----|

  |               |               |               |
|----------------------------------------------------------------|
|4---------------------------------------------------------------|
|--------------------------1-----2-------------------2-----2-----|
|----------------------------------------------------------------|

  |               |               |               |
|----------------------------------------------------------------|
|2---------------------------------------------------------------|
|--------------------------------2-------------------------3-----|
|----------------------------------------------------------------|

  |               |               |               |
|----------------------------------------------------------------|
|--------------------------------2-------------------------------|
|2---------------------------------------------------------------|
|----------------------------------------------------------------|

  |               |               |               |
|----------------------------------------------------------------|
|--------------------------------2-------------------------------|
|0---------------------------------------------------------------|
|----------------------------------------------------------------|

  |               |               |               |
|----------------------------------------------------------------|
|4---------------------------------------------------------------|
|--------------------------------2-------------------------2-----|
|----------------------------------------------------------------|

  |               |               |               |
|--------------------------------4-------------------------------|
|2---------------------------------------------------------2-----|
|----------------------------------------------------------------|
|----------------------------------------------------------------|

  |               |               |               |
|--------------------------------1-------------------------------|
|----------------------------------------------------------------|
|4---------------------------------------------------------4-----|
|----------------------------------------------------------------|

  |               |               |               |
|----------------------------------------------------------------|
|3-------------------------------4-------------------------------|
|----------------------------------------------------------------|
|----------------------------------------------------------------|

  |               |               |               |
|--------------------------6-----11--------6---------------------|
|4-----------------------------------------------4---------------|
|----------------------------------------------------------------|
|----------------------------------------------------------------|

  |               |               |               |
|----------------------------------------------------------------|
|4---------------------------------------------------------------|
|--------------------------------3-------------------------------|
|----------------------------------------------------------------|

  |               |               |               |
|--------------------------------------------------------0-------|
|----------------------------------------------------------------|
|2-------------------------------4-------------------------------|
|----------------------------------------------------------------|

  |               |               |               |
|----------------1---------------3---------------6---------------|
|4---------------------------------------------------------------|
|----------------------------------------------------------------|
|----------------------------------------------------------------|

  |               |               |               |
|----------------------------------------------------------------|
|4---------4-------------------------------------1---------------|
|----------------1---------------2-------------------------------|
|----------------------------------------------------------------|

  |               |               |               |
|------------------------------------------------0---------------|
|2---------------------------------------------------------------|
|--------------------------------0---------0---------------------|
|----------------4-----------------------------------------------|

  |               |               |               |
|1---------------8-----------------------------------------------|
|----------1---------------1---------------------3---------------|
|--------------------------------4---------4---------------------|
|----------------------------------------------------------------|

  |               |               |               |
|----------------6---------------3-------------------------------|
|4-----------------------------------------------4---------------|
|----------------------------------------------------------------|
|----------------------------------------------------------------|

  |               |               |               |
|----------------------------------------------------------------|
|4---------------4-------------------------------1---------------|
|--------------------------------2-------------------------------|
|----------------------------------------------------------------|

  |               |               |               |
|--------------------------------1---------------4---------------|
|2---------------4-----------------------------------------------|
|----------2-------------------------------2---------------2-----|
|----------------------------------------------------------------|

  |               |               |               |
|------------------------------------------------4---------------|
|----------------4---------------2-------------------------------|
|2---------------------------------------------------------------|
|----------2---------------2-------------------------------------|

  |               |               |               |
|----------------------------------------------------------------|
|--------------------------------2-------------------------------|
|0---------------------------------------------------------0-----|
|----------------------------------------------------------------|

  |               |               |               |
|--------------------------------2-------------------------------|
|0---------------------------------------------------------0-----|
|----------------------------------------------------------------|
|----------------------------------------------------------------|

  |               |               |               |
|----------------------------------------------------------------|
|2-------------------------2-------------------------------------|
|--------------------------------4-------------------------------|
|--------------------0-------------------------------------------|

  |               |               |               |
|--------------------------------0-------------------------------|
|4-------------------------4-------------------------------------|
|----------------------------------------------------------------|
|----------------------------------------------------------------|

  |               |               |               |
|--------------------------------6-------------------------------|
|4---------------------------------------------------------4-----|
|----------------------------------------------------------------|
|----------------------------------------------------------------|

  |               |               |               |
|--------------------------------4-------------------------------|
|--------------------------4---------------4---------------------|
|2-----------------------------------------------2---------------|
|----------------------------------------------------------------|

  |               |               |               |
|----------------------------------------------------------------|
|2---------------------------------------------------------------|
|--------------------------------0-------------------------------|
|----------------------------------------------------------------|

  |               |               |               |
|----------------------------------------------------------------|
|2-------------------------2-------------------------------------|
|--------------------------------4-------------------------------|
|--------------------0-------------------------------------------|

  |               |               |               |
|----------------1---------------3---------------6---------------|
|4---------------------------------------------------------------|
|----------4-------------------------------4---------------4-----|
|----------------------------------------------------------------|

  |               |               |               |
|----------------------------------------------------------------|
|4-----------------------------------------------1---------------|
|----------------1---------------2---------2---------------------|
|----------------------------------------------------------------|

  |               |               |               |
|----------------4-------------------------------2---------------|
|2---------------------------------------------------------------|
|--------------------------------0---------0---------------------|
|----------------------------------------------------------------|

  |               |               |               |
|1---------1-----------------------------------------------------|
|------------------------------------------------3---------------|
|----------------3---------------4-------------------------------|
|----------------------------------------------------------------|

  |               |               |               |
|----------------6---------------3-------------------------------|
|4-----------------------------------------------4---------------|
|----------------------------------------------------------------|
|----------------------------------------------------------------|

  |               |               |               |
|----------------------------------------------------------------|
|4-----------------------------------------------4---------------|
|----------------1---------------2-------------------------------|
|------------------------------------------2---------------2-----|

  |               |               |               |
|----------------4---------------1-------------------------------|
|2-----------------------------------------------2---------------|
|----------------------------------------------------------------|
|----------------------------------------------------------------|

  |               |               |               |
|4---------------------------------------------------------------|
|----------------4---------------2---------------2---------------|
|----------------------------------------------------------------|
|------------------------------------------0---------------------|

  |               |               |               |
|----------------------------------------------------------------|
|----------------2-----------------------------------------------|
|0-------------------------------4---------------0---------------|
|----------0-----------------------------------------------0-----|

  |               |               |               |
|--------------------------------4-------------------------------|
|4---------------4-------------------------------4---------------|
|----------------------------------------------------------------|
|----------2-----------------------------------------------------|

  |               |               |               |
|----------------4---------------1-------------------------------|
|2-----------------------------------------------2---------------|
|----------------------------------------------------------------|
|----------------------------------------------------------------|

  |               |               |               |
|----------------1-----------------------------------------------|
|--------------------------------2-------------------------------|
|4-----------------------------------------------4---------------|
|----------------------------------------------------------------|

  |               |               |               |
|------------------------------------------------6---------------|
|3---------------3---------------4-------------------------------|
|----------------------------------------------------------------|
|----------------------------------------------------------------|

  |               |               |               |
|----------------1---------------2---------------6---------------|
|4---------------------------------------------------------------|
|----------------------------------------------------------------|
|----------------------------------------------------------------|

  |               |               |               |
|------------------------------------------------0---------------|
|4---------------------------------------------------------------|
|----------------2---------------3---------3---------------------|
|----------------------------------------------------------------|

  |               |               |               |
|----------------------------------------------------------------|
|------------------------------------------------3---------------|
|2---------------3---------------4-------------------------------|
|----------------------------------------------------------------|

  |               |               |               |
|----------------1---------------3---------------6---------------|
|4---------------------------------------------------------------|
|----------------------------------------------------------------|
|----------------------------------------------------------------|

  |               |               |               |
|----------------6-----------------------------------------------|
|4-----------------------------------------------4---------------|
|--------------------------------2-------------------------------|
|------------------------------------------2---------------2-----|

  |               |               |               |
|------------------------------------------------2---------------|
|2---------------------------------------------------------------|
|----------------1---------------0-------------------------------|
|----------------------------------------------------------------|

  |               |               |               |
|1---------1-------------------------------------0---------------|
|----------------------------------------------------------------|
|----------------3---------------4-------------------------------|
|----------------------------------------------------------------|

  |               |               |               |
|----------------1---------------3---------------6---------------|
|4---------------------------------------------------------------|
|----------------------------------------------------------------|
|----------------------------------------------------------------|

  |               |               |               |
|----------------------------------------------------------------|
|4---------------4-------------------------------3---------------|
|--------------------------------2-------------------------------|
|----------2-----------------------------------------------------|

  |               |               |               |
|----------------4---------------1-------------------------------|
|2-----------------------------------------------2---------------|
|----------2-----------------------------------------------2-----|
|----------------------------------------------------------------|

  |               |               |               |
|------------------------------------------------4---------------|
|--------------------------------2---------2---------------------|
|2---------------2-----------------------------------------------|
|----------------------------------------------------------------|

  |               |               |               |
|----------------------------------------------------------------|
|------------------------------------------------2---------------|
|0---------------2---------------4-------------------------------|
|----------0-------------------------------0---------------0-----|

  |               |               |               |
|----------------2-----------------------------------------------|
|0-------------------------------4---------------0---------------|
|----------------------------------------------------------------|
|----------------------------------------------------------------|

  |               |               |               |
|----------------4-----------------------------------------------|
|2-----------------------------------------------3---------------|
|----------2---------------2-----4-------------------------------|
|----------------------------------------------------------------|

  |               |               |               |
|--------------------------------0---------0-----6---------------|
|4---------------4-----------------------------------------------|
|----------------------------------------------------------------|
|----------------------------------------------------------------|

  |               |               |               |
|----------------1---------------2---------------6---------------|
|4---------------------------------------------------------------|
|----------------------------------------------------------------|
|----------------------------------------------------------------|

  |               |               |               |
|----------------------------------------------------------------|
|--------------------------------1---------------4---------------|
|2---------------4-----------------------------------------------|
|----------2-------------------------------2---------------2-----|

  |               |               |               |
|----------------------------------------------------------------|
|2-----------------------------------------------1---------------|
|----------------1---------------0---------0---------------------|
|----------0-----------------------------------------------------|

  |               |               |               |
|----------------4-------------------------------1---------------|
|2---------2-----------------------------------------------------|
|--------------------------------4---------4---------------------|
|----------------------------------------------------------------|

  |               |               |               |
|----------------------------------------------------------------|
|4---------------------------------------------------------------|
|--------------------------------4-------------------------------|
|----------------------------------------------------------2-----|

  |               |               |               |
|----------------------------------------------------------------|
|4---------------------------------------------------------4-----|
|--------------------------1-----2-------------------------------|
|----------------------------------------------------------------|

  |               |               |               |
|--------------------------------------------------------2-------|
|2---------------------------------------------------------------|
|--------------------------------0-------------------------------|
|--------------------------4-------------------------------------|

  |               |               |               |
|1---------------------------------------------------------1-----|
|----------------------------------------------------------------|
|--------------------------------4-------------------------------|
|----------------------------------------------------------------|

  |               |               |               |
|----------------------------------------------------------------|
|4---------------------------------------------------------------|
|--------------------------------4-------------------------------|
|----------------------------------------------------------------|

  |               |               |               |
|----------------------------------------------------------------|
|4---------------------------------------------------------------|
|--------------------------------2-------------------------------|
|----------------------------------------------------------------|

  |               |               |               |
|--------------------------------4-------------------------------|
|2---------------------------------------------------------------|
|----------------------------------------------------------------|
|----------------------------------------------------------------|

  |               |               |               |
|----------------------------------------------------------------|
|--------------------------------2-------------------------2-----|
|2-------------------------2-------------------------------------|
|----------------------------------------------------0-----------|

  |               |               |               |
|----------------------------------------------------------------|
|--------------------------------2-------------------------------|
|0---------------------------------------------------------0-----|
|----------------------------------------------------------------|

  |               |               |               |
|----------------------------------------------------------------|
|4---------------------------------------------------------------|
|--------------------------------2-------------------------------|
|--------------------------2-------------------------------------|

  |               |               |               |
|--------------------------------4-------------------------------|
|2---------------------------------------------------------------|
|----------------------------------------------------------------|
|----------------------------------------------------------------|

  |               |               |               |
|--------------------------------1-------------------------------|
|----------------------------------------------------------------|
|4---------------------------------------------------------------|
|----------------------------------------------------------------|

  |               |               |               |
|----------------------------------------------------------------|
|3-------------------------------4-------------------------------|
|----------------------------------------------------------------|
|----------------------------------------------------------------|

  |               |               |               |
|----------------------------------------------------------------|
|4---------------------------------------------------------------|
|--------------------------------4-------------------------------|
|----------------------------------------------------------2-----|

  |               |               |               |
|----------------------------------------------------------------|
|4---------------------------------------------------------------|
|------------------------4-------3-------------------------------|
|----------------------------------------------------------------|

  |               |               |               |
|----------------------------------------------------------------|
|----------------------------------------------------------------|
|2-------------------------3-----4-------------------------------|
|----------------------------------------------------------------|

  |               |               |               |
|----------------1---------------3---------------6---------------|
|4---------------------------------------------------------------|
|----------------------------------------------------------------|
|----------------------------------------------------------------|

  |               |               |               |
|--------------------------------4-------------------------------|
|4---------4-------------------------------------4---------------|
|----------------1-----------------------------------------------|
|----------------------------------------------------------------|

  |               |               |               |
|--------------------------------2-------------------------------|
|2-----------------------------------------------2---------------|
|----------------------------------------------------------------|
|----------------4-----------------------------------------------|

  |               |               |               |
|1---------------1-------------------------------1---------------|
|----------------------------------------------------------------|
|--------------------------------4-------------------------------|
|----------4-----------------------------------------------------|

  |               |               |               |
|----------------1---------------3---------------6---------------|
|4---------------------------------------------------------------|
|----------4-------------------------------4---------------4-----|
|----------------------------------------------------------------|

  |               |               |               |
|----------------------------------------------------------------|
|4-----------------------------------------------1---------------|
|----------------3---------------2-------------------------------|
|----------2-----------------------------------------------------|

  |               |               |               |
|--------------------------------1---------------4---------------|
|2---------------4-----------------------------------------------|
|----------2-------------------------------2---------------2-----|
|----------------------------------------------------------------|

  |               |               |               |
|------------------------------------------------4---------------|
|----------------3---------------2-------------------------------|
|2---------2-------------------------------2---------------2-----|
|----------------------------------------------------------------|

  |               |               |               |
|----------------------------------------------------------------|
|--------------------------------2-------------------------------|
|0---------------------------------------------------------------|
|----------------------------------------------------------------|

  |               |               |               |
|--------------------------------2-------------------------------|
|0---------------------------------------------------------0-----|
|----------------------------------------------------------------|
|----------------------------------------------------------------|

  |               |               |               |
|----------------------------------------------------------------|
|2---------------------------------------------------------------|
|--------------------------------4-------------------4-----4-----|
|----------------------------------------------------------------|

  |               |               |               |
|--------------------------------0-------------------------------|
|4---------------------------------------------------------------|
|----------------------------------------------------------------|
|----------------------------------------------------------------|

  |               |               |               |
|--------------------------------6-------------------------------|
|4---------------------------------------------------------4-----|
|----------------------------------------------------------------|
|----------------------------------------------------------------|

  |               |               |               |
|----------------------------------------------------------------|
|--------------------------------4-------------------------------|
|2---------------------------------------------------------------|
|----------------------------------------------------------------|

  |               |               |               |
|----------------------------------------------------------------|
|2---------------------------------------------------------------|
|--------------------------------0-------------------------------|
|--------------------------0-------------------------------------|

  |               |               |               |
|----------------------------------------------------------------|
|2---------------------------------------------------------------|
|--------------------------------4-------------------------------|
|----------------------------------------------------------------|

  |               |               |               |
|----------------1---------------2---------------3---------------|
|2---------------------------------------------------------------|
|----------------------------------------------------------------|
|----------------------------------------------------------------|

  |               |               |               |
|4---------------------------------------------------------------|
|--------------------------2-------------------------------------|
|----------------------------------------------------------------|
|----------------------------------------------------------------|




Created with TablEdit http://www.tabledit.com/

     
Добавлено: 22.10.2013
Другие материалы по этой песне:
  • Аккорды и текст

Страница создана 05.04.2012
http://primanota.ru/frank-sinatra/but-not-for-me-chords.htm
Привет, Гость.
Предлагаем пройти революционный курс по гитаре.
Подарок от PrimaNota.Ru, забирай!