PrimaNota.ru - самый крупный в мире бесплатный архив песенных текстов, аккордов, табулатур и нот


Frank Ocean - We All Try - аккорды и текст, видео

Регистрация Запомнить меня
Войти через:  Facebook Google Twitter Vk Yandex Mail.ru

Frank Ocean - We All Try - аккорды и текст, видео

Печатать
Просмотров: 278
Авторы: Nathan Perez, Christopher Breaux

We All Try
Frank Ocean
Chords
     C#m/A      F7M       Dm7      G
e|-----0------------------5----------------------------------------------|
B|-----5--------10--------6--------3-------------------------------------|
G|-----6--------9---------5--------4-------------------------------------|
D|-----6--------10--------7--------5-------------------------------------|
A|-----0--------8---------5--------5-------------------------------------|
E|-----5-----------------------------------------------------------------|

Intro
     C#m/A   F7M    Dm7                         C#m/A  
e|-----0------------5------8--7----5-------------0-----------------------|
B|-----5-----10-----6------------------8----6----5-----------------------|
G|-----6-----9------5----------------------------6-----------------------|
D|-----6-----10-----7----------------------------6-----------------------|
A|-----0-----8------5----------------------------------------------------|
E|-----5-----------------------------------------5-----------------------|
           (you play this riff in some other parts of the song also)
                         
     F7M    Dm7   G
e|-----------------5-----------------------------------------------------|
B|----10-----6-----3-----3h5---------------------------------------------|
G|----9------5-----4-----------------------------------------------------|
D|----10-----7-----5-----------------------------------------------------|
A|----8------5-----5-----------------------------------------------------|
E|-----------------------------------------------------------------------|
                                               

Verse 1
C#m/A           F7M  
I believe Jehovah Jireh
Dm7                      G
I believe there's heaven, I believe in war
C#m/A             F7M  
I believe a woman's temple
Dm7                          G
Gives her the right to choose but baby don't abort
C#m/A                F7M  
I believe that marriage isn't
Dm7                      G
Between a man and woman but between love and love
C#m/A                     F7M              Dm7
And I believe you when you say that you've lost all faith
G                       C#m/A      F7M        Dm7
But you must believe in something, something, something
G                    C#m/A      F7M        Dm7        G
You gotta believe in something, something, something


Hook
                  C#m/A
I still believe in man
F7M                 Dm7
A wise one asked me why
G                                C#m/A
Cause I just don't believe we're wicked
               F7M                     Dm7
I know that we sin but I do believe we try
  G           C#m/A          F7M  
We all try, the girls try, the boys try
   Dm7             G          C C#m/A    F7M   
the Women try, the men try, you and I .. try
Dm7       G
try, we all try


Verse 2
C#m/A              F7M  
I don't believe in time travel
Dm7                              G
I don't believe our nation's flag is on the moon
C#m/A                     F7M  
I don't believe our lives are simple
Dm7                              G
And I don't believe they're short, this is interlude
C#m/A                    F7M  
I don't believe my hands are cleanly
Dm7                          G
Can't believe that you would let me touch your heart
C#m/A                 F7M                Dm7
She didn't believe me when I said that I lost my faith
G                       C#m/A      F7M        Dm7
But you must believe in something, something, something
G                    C#m/A      F7M        Dm7        G
You gotta believe in something, something, something


Hook
                  C#m/A
I still believe in man
F7M                 Dm7
A wise one asked me why
G                                C#m/A
Cause I just don't believe we're wicked
               F7M                     Dm7
I know that we sin but I do believe we try
  G           C#m/A          F7M  
We all try, the girls try, the boys try
   Dm7             G            C#m/A    F7M   
the Women try, the men try, you and I .. try
Dm7       G
try, we all try


C#m/A         F7M    Dm7
Try to believe  ...      try
G        
Try to believe                        x4

Tabbed by Jon Carlo Datuin
Feel free to point out any mistakes :)
Добавлено: 13.04.2012
Другие материалы по этой песне:
  • Аккорды и текст

Страница создана 13.04.2012
http://primanota.ru/frank-ocean/we-all-try-chords.htm
Привет, Гость.
Предлагаем пройти революционный курс по гитаре.
Подарок от PrimaNota.Ru, забирай!