PrimaNota.ru - самый крупный в мире бесплатный архив песенных текстов, аккордов, табулатур и нот


Frank Ocean - Slide On Me - таба, видео

Регистрация Запомнить меня
Войти через:  Facebook Google Twitter Vk Yandex Mail.ru

Frank Ocean - Slide On Me - таба, видео

Печатать
Просмотров: 57
Уроки эстрадного вокала в Санкт-Петербурге
[Intro]
e|------------------------------------------------------------------------------------------------|
B|------------------------------------------------------------------------------------------------|
G|----------------------------------------4-------------------------------------------------------|
D|----4-----------4-----------4---------------4-------1-----------1-----------1-----------1-------|
A|--------6-----------6-----------6---4-------------------2-----------2-----------2-----------2---|
E|4-----------4-----------4-----------------------0-----------2-----------0-----------2-----------| x2

"But when you slide on me...."

e|---------------------------------------------|
B|---------------------------------------------|
G|---------------------------------------------|
D|----1-----------1-----------1-----------1----|
A|--------2-----------2-----------2-----------2|
E|0-----------2-----------0-----------2--------| 

e|------------------------------------------------------------------------------------------------|
B|------------------------------------------------------------------------------------------------|
G|----------------------------------------4-------------------------------------------------------|
D|----4-----------4-----------4---------------4-------1-----------1-----------1-----------1-------|
A|--------6-----------6-----------6---4-------------------2-----------2-----------2-----------2---|
E|4-----------4-----------4-----------------------0-----------2-----------0-----------2-----------|

~ P.S. I love you for knowing this song.
Добавлено: 22.09.2017
Другие материалы по этой песне:
  • Аккорды и текст

Страница создана 22.09.2017
http://primanota.ru/frank-ocean/slide-on-me-chords.htm
Привет, Гость.
Предлагаем пройти революционный курс по гитаре.
Подарок от PrimaNota.Ru, забирай!