PrimaNota.ru - самый крупный в мире бесплатный архив песенных текстов, аккордов, табулатур и нот


Frank Iero - Guilttripping - бас-таба, видео

Регистрация Запомнить меня
Войти через:  Facebook Google Twitter Vk Yandex Mail.ru

Frank Iero - Guilttripping - бас-таба, видео

Печатать
Просмотров: 536
Уроки эстрадного вокала в Санкт-Петербурге
-------------------------------------------------------------------------------
                             Guilttripping - Frnkiero andthe Cellebration
-------------------------------------------------------------------------------
Tabbed by: Sam
E-mail: sflayderman@hotmail.com

Tuning: Drop D!
Intro/Chorus
G|---------------------------------------------------------------------------|
D|---------------------------------------------------------------------------|
A|--------------------------------------------------5-5-5-5-5-5-5-5----------|4x
E|--4-4-4-4-4-4-4-4-3-3-3-3-3-3-3-3-1-1-1-1-1-1-1-1--------------------------|
Verse
G|---------------------------------------------------------------------------|
D|---------------------------------------------------------------------------|
A|------1111----1111----1111----2222-----------------------------------------|
E|--4444----4444----4444----3333---------------------------------------------|
Verse (cont.)
G|---------------------------------------------------------------------------|
D|---------------------------------------------------------------------------|
A|------1111----1111----1111-------------------------------------------------|
E|--4444----4444----4444----33333333-----------------------------------------|
Pre-Chorus
G|---------------------------------------------------------------------------|
D|---------------------------------------------------------------------------|
A|------1111--------------1111-6666-2222-------------------------------------|2x
E|--4444----1111-7777-4444---------------------------------------------------|
Bridge
G|-----------------------------------------------------------------------------------------------|
D|-----------------------------------------------------------------------------------------------|
A|------------------------------------------------22222222-----4444-----4444--------22222222-----|
E|--6666-8888-99999999-44444444-33333333-11111111----------4444-----3333-----1111111-------------|
Bridge (cont.)
G|---------------------------------------------------------------------------|
D|---------------------------------------------------------------------------|
A|--11-11---11-11-222--------------------------------------------------------|2x
E|----4--444--4--------------------------------------------------------------|

After the Bridge the Pre-Chorus and Chorus repeat
===============================================================================
Добавлено: 11.12.2015
Другие материалы по этой песне:
  • Аккорды и текст

Страница создана 11.12.2015
http://primanota.ru/frank-iero/guilttripping-chords.htm
Привет, Гость.
Предлагаем пройти революционный курс по гитаре.
Подарок от PrimaNota.Ru, забирай!