PrimaNota.ru - самый крупный в мире бесплатный архив песенных текстов, аккордов, табулатур и нот


Francis Lai - Love Story Theme - таба, видео

Регистрация Запомнить меня
Войти через:  Facebook Google Twitter Vk Yandex Mail.ru

Francis Lai - Love Story Theme - таба, видео

Печатать
Просмотров: 855
hey, my name is momo :) if u have any question just email me at caleb.social@yahoo.com :)
battlefield 3 beta tomorrow!!!! :D and check out my youtube channel for more songs. 
elodanfy. :) enjoy this lovely song :)

Q=80
  Em                                    B7
 4/4
  Gtr I
|-3-----3-3-------|-(3)-----3-3-------|-------2-2-------|-(2)-----2-2--------|
|---0-0-------0---|-----0-0-----0-1-0-|-------------0---|---------------0----|
|-----------0---0-|-------------0-2-0-|-2-2-2-----2---2-|-----2-2-----2---2--|
|---------2-------|-----------2-------|---------1-------|-----------1--------|
|-----------------|-------------------|-2---------------|--2-----------------|
|-0---------------|--0----------------|-----------------|--------------------|


  Em               C                   B7
|-------0-0------|-(0)-----0-0-------|-----------------|
|---------0------|-------------------|-------4-4-------|
|-0-0-0----------|-----0-0-----0-2-0-|-------------2---|
|---------2--2p0-|-------------------|-4-4-4-----4---4-|
|----------------|--3--------3-------|-2---------------|
|-0--------------|-------------------|-----------------|


             C   Em                            Am
                                >
|------0--2----|--------------|--------------|-8-------------8---|
|-(4)--------1-|-0------------|--------------|-----5-------5---5-|
|------------0-|-----0---0----|-----0---0----|---5-5-5-(5)-------|
|---------1--2-|--------------|--------------|-------------------|
|--2---4-------|---2---2----2-|---2---2----2-|-0--------0--------|
|--------------|-0------------|-0------------|-------------------|


  D7                                                          Am
|----------------8----|-7-----------7---|---0-0---(0)---7---|-5-----------7---|
|-5-7-7---(7)-10---10-|-----7-----7---3-|-3-----------8---8-|-----5-----7---7-|
|---------------------|---7---7-0-------|-0--------0--------|---5---5-4-------|
|-0--------0----------|-----------------|-------------------|-----------------|
|-------0-------------|-----------------|-2-----2-----------|-0---------------|
|---------------------|-----------------|-------------------|-----------------|


  Em                Am                  Dsus4   D7
  <
|-3-----5-3---3-7-|-8-------------0-3-|-3---3-------5---|-----------------|
|-----0-----5-----|-----5-------------|-----1-----7-----|-0---------0-1-3-|
|---0-------------|---5---5-(5)-7-----|---2---2h5-----5-|-----0-----------|
|-----------------|-------------------|-0-------0-------|---0---0---------|
|-----------------|-0--------0--------|-----------------|-------------0-2-|
|-0-------0-------|-------------------|-----------------|---------3-------|


                      F#      F#m
|-2---0-------------|-------------2---|-----------------|-------2-2--------|
|-----------3-3p1-0-|-----------2---2-|-4---------------|---4-4-----4-4-1--|
|---0---0-0---------|-3---------------|-----3-------3---|-------3-3--------|
|-------------------|-----4-----------|---3---3-3-3---3-|---3-3-----3-3-1--|
|-3-------3---------|---4---4---------|---------2-------|-2----------------|
|-------------------|---------2-------|-----------------|------------------|


|-3-----3-3-------|-(3)-----3-3-------|-------2-2-------|-(2)-----2-2-------|
|---0-0-------0---|-----0-0-----0-1-0-|-------------0---|---------------0---|
|-----------0---0-|-------------0-2-0-|-2-2-2-----2---2-|-----2-2-----2---2-|
|---------2-------|-----------2-------|---------1-------|-----------1-------|
|-----------------|-------------------|-2---------------|--2----------------|
|-0---------------|--0----------------|-----------------|-------------------|


|-------0-0------|-(0)-----0-0-------|-----------------|
|---------0------|-------------------|-------4-4-------|
|-0-0-0----------|-----0-0-----0-2-0-|-------------2---|
|---------2--2p0-|-------------------|-4-4-4-----4---4-|
|----------------|--3--------3-------|-2---------------|
|-0--------------|-------------------|-----------------|


|------0--2----|-0-----------3-2-0-|
|-(4)--------4-|-----0-------------|
|--------------|---0---0-(0)-------|
|---------1--4-|-2--------2--------|
|--2---4-------|-------------------|
|--------------|-------------------|


                                          Em
|-0-----------3-2-0-|-0-----------0-----|-0--*|
|-----0-------------|-----0---------0---|-0--*|
|---0---0-(0)-------|---0---0-(0)-----0-|-0--*|
|-0--------0--------|-------------------|-2--*|
|-------------------|-4--------3--------|-2--*|
|-------------------|-------------------|-0--*|
Добавлено: 16.05.2012
Вам также может быть интересно:
Другие материалы по этой песне:

Страница создана 29.02.2012
http://primanota.ru/francis-lai/love-story-theme-chords.htm
Привет, Гость.
Предлагаем пройти революционный курс по гитаре.
Подарок от PrimaNota.Ru, забирай!