PrimaNota.ru - самый крупный в мире бесплатный архив песенных текстов, аккордов, табулатур и нот


Fort Minor - High Road - текст песни, таба, бас-таба, видео

Регистрация Запомнить меня
Войти через:  Facebook Google Twitter Vk Yandex Mail.ru

Fort Minor - High Road - текст песни, таба, бас-таба, видео

Печатать
Просмотров: 699
-------------------------------------------------------------------------------
                     High Road - Fort Minor ft. John Legend
-------------------------------------------------------------------------------
Tabbed by:Sound Mind
Email:kagenecros@hotmail.com

Tuning:Standard

These are the piano chords in the chorus that Mike plays:
e|---------------------------------------------------------------------------|
B|---------------------------------------------------------------------------|
G|2--4--5---7--9-------------------------------------------------------------|
D|2--4--5---7--9-------------------------------------------------------------|
A|0--2--3---5--7-------------------------------------------------------------|
E|---------------------------------------------------------------------------|

This is the bass line in the verse:
e|---------------------------------------------------------------------------|
B|---------------------------------------------------------------------------|
G|---------------------------------------------------------------------------|
D|---------------------------------------------------------------------------|
A|---------------------------------------------------------------------------|
E|5--7--8---10--12-----------------------------------------------------------|

| /  slide up
| \  slide down
| h  hammer-on
| p  pull-off
| ~  vibrato
| +  harmonic
| x  Mute note
===============================================================================
Добавлено: 01.03.2012
Другие материалы по этой песне:

Страница создана 01.03.2012
http://primanota.ru/fort-minor/high-road-chords.htm
Привет, Гость.
Предлагаем пройти революционный курс по гитаре.
Подарок от PrimaNota.Ru, забирай!