PrimaNota.ru - самый крупный в мире бесплатный архив песенных текстов, аккордов, табулатур и нот


Fort Minor - Dolla - текст песни, таба, видео

Регистрация Запомнить меня
Войти через:  Facebook Google Twitter Vk Yandex Mail.ru

Fort Minor - Dolla - текст песни, таба, видео

Печатать
Просмотров: 301
Уроки эстрадного вокала в Санкт-Петербурге
-------------------------------------------------------------------------------
                             DOLLA - Fort Minor
-------------------------------------------------------------------------------
Tabbed by: Julien Daunais
Email: moose_from_hell@hotmail.com

So, I think this is a great song and it deserve a great tab.

Tuning: Normal

Intro:
e|--------------|------------------------|
B|--------------|------------------------|
G|--------------|------------------------| 
D|--7-7-5-------|-----5-----7------------|    x2
A|--------7-----|-5h7---5h7--------------|
E|----------8/5-|------------------------|

Chorus:
e|------------------------------|------------------------|
B|------------------------------|------------------------|
G|------------------------------|------------------------|
D|--7-7-5-----------------------|-----5-----7---7-----7--|
A|--------7---------------------|-5h7---5h7---4---5-7----|
E|----------8/5-5-5-5-5-5-5-5-5-|------------------------|
                |-----Pm-------|              |--Pm--|

e|------------------------------|-------------|
B|------------------------------|-------------|
G|------------------------------|-------------|
D|--7-7-5-----------------------|-----5-----7-|
A|--------7---------------------|-5h7---5h7---|
E|----------8/5-5-5-5-5-5-5-5-5-|-------------|
                |-----Pm-------|

Verse:
e|--------------|------------------------|
B|--------------|------------------------|
G|--------------|------------------------| 
D|--7-7-5-------|-----5-----7------------|    x8
A|--------7-----|-5h7---5h7--------------|
E|----------8/5-|------------------------|

Rewind thing:
e|--------------|------------------------|
B|--------------|------------------------|
G|--------------|------------------------|
D|--7-7-5-------|-----5-----7------------|
A|--------7-----|-5h7---5h7--------------|
E|----------8/5-|------------------------|

e|--------------|-----------|------------|
B|--------------|-----------|------------|
G|--------------|-----------|------------|
D|--7-7-5-------|-7-7-5-----|------------|
A|--------7-----|-------7---|------------|
E|----------8/5-|---------8-|-5/---------|

Verse x8

Verse 2:
e|--------------|
B|--------------|
G|--------------|
D|--7-7-5-------|    x2
A|--------7-----|
E|----------8/5-|

e|--------------|
B|--------------|
G|--------------|
D|------5-------|
A|--------7-----|
E|----------8/5-|

e|--------------|------------------------|
B|--------------|------------------------|
G|--------------|------------------------|
D|--7-7-5-------|-----5-----7---7-----7--|
A|--------7-----|-5h7---5h7---4---5-7----|
E|----------8/5-|------------------------|
                              |--Pm--|

e|--------------|------------------------|
B|--------------|------------------------|
G|--------------|------------------------|
D|--7-7-5-------|-----5-----7------------|    x4
A|--------7-----|-5h7---5h7--------------|
E|----------8/5-|------------------------|

Chorus:
e|------------------------------|------------------------|
B|------------------------------|------------------------|
G|------------------------------|------------------------|
D|--7-7-5-----------------------|-----5-----7---7-----7--|    x3
A|--------7---------------------|-5h7---5h7---4---5-7----|
E|----------8/5-5-5-5-5-5-5-5-5-|------------------------|
                |-----Pm-------|              |--Pm--|

e|--------------|------------------------|
B|--------------|------------------------|
G|--------------|------------------------|
D|--7-7-5-------|-----5-----7------------|
A|--------7-----|-5h7---5h7--------------|
E|----------8/5-|------------------------|

| /  slide up
| \  slide down
| h  hammer-on
| p  pull-off
| ~  vibrato
| +  harmonic
| x  Mute note
===============================================================================
Добавлено: 05.03.2012
Другие материалы по этой песне:
  • Аккорды и текст

Страница создана 05.03.2012
http://primanota.ru/fort-minor/dolla-chords.htm
Привет, Гость.
Предлагаем пройти революционный курс по гитаре.
Подарок от PrimaNota.Ru, забирай!