PrimaNota.ru - самый крупный в мире бесплатный архив песенных текстов, аккордов, табулатур и нот


Foo Fighters - How do You Do? - аккорды и текст, видео

Регистрация Запомнить меня
Войти через:  Facebook Google Twitter Vk Yandex Mail.ru

Foo Fighters - How do You Do? - аккорды и текст, видео

Печатать
Просмотров: 101
How do You Do?
Foo Fighters
SONG:"How do you do"
ARTIST:Foo Fighters
ALBUM:"Touch soundtrack"

TABBED BY: sui generis (my_own_fall@yahoo.com)

Ok.There are many versions of how people play this
song.And i gotta 
say,some of them sound weird....
This is the way i play it.


drop D (DADGBE)



 intro/verse
 E|------------------------------2-2-2--------------
 B|--2-2-2--2-2-2--2-2-2--2-2-2--3-3-3--------------
 G|--2-2-2--2-2-2--2-2-2--2-2-2--2-2-2--1-1--4------
 D|--2-2-2--2-2-2--2-2-2--2-2-2--0-0-0--0-0--4-4-4--
 A|--0-0-0--4-4-4--x-x-x--x-x-x---------2-2--2-4-4--
 D|----------------4-4-4--2-2-2---------2-2----4-4--

or

 E|------------------------------2-2-2--------------
 B|--2-2-2--2-2-2--2-2-2--2-2-2--3-3-3--------------
 G|--2-2-2--2-2-2--2-2-2--2-2-2--2-2-2--1-1--4------
 D|--2-2-2--2-2-2--4-4-4--2-2-2--0-0-0--0-0--4-4-4--
 A|--0-0-0--x-x-x-----------------------2-2--2-4-4--
 D|---------4-4-4-----------------------2-2----4-4--



E|---------------------------------------------------------------
B|---------------------------------------------------------------
G|---------------------------------------------------------------
D|--7-7-7-7-7-7-7-7-7-7-7-7-7-7-7-7-7-7-7-7-6-6-6-6-7-7-7-4-4-4--
A|--x-x-x-x-x-x-x-x-x-x-x-x-x-x-x-x-x-x-x-x-x-x-x-x-x-x-x-x-x-x--
D|--7-7-7-7-7-7-7-7-7-7-7-7-7-7-7-7-7-7-7-7-6-6-6-6-7-7-7-4-4-4-- 
Have a fooking great time!   =)

    sui generis
     
Добавлено: 05.07.2013
Другие материалы по этой песне:
  • Аккорды и текст

Страница создана 02.05.2012
http://primanota.ru/foo-fighters/how-do-you-do-chords.htm
Привет, Гость.
Предлагаем пройти революционный курс по гитаре.
Подарок от PrimaNota.Ru, забирай!