PrimaNota.ru - самый крупный в мире бесплатный архив песенных текстов, аккордов, табулатур и нот


Foo Fighters - Generator - аккорды и текст, таба, бас-таба, видео

Регистрация Запомнить меня
Войти через:  Facebook Google Twitter Vk Yandex Mail.ru

Foo Fighters - Generator - аккорды и текст, таба, бас-таба, видео

Печатать
Просмотров: 319
Уроки эстрадного вокала в Санкт-Петербурге
Авторы музыки: Dave Grohl, Nate Mendel, Taylor Hawkins

Generator
Foo Fighters
		   This Song Rocks!!!! This Is Correct To! Please Rate It And Enjoy!!!!!!!!!!!!!!!

Notation Legend
b=Bend
h=Hammer On
/=Slide

Generator

Intro
   (Gtr. 1)
e||------------------|---------------------|---------------------||
B||------------------|---------------------|---------------------||
G||------------------|---------------------|---------------------||
D||--6-6-4-2-4-2-4/6-|-6-6-4-2-4-2-4/6/4/2-|-6-6-4-2-4-2-4/6/4/2-||
A||------------------|---------------------|---------------------||
E||------------------|---------------------|---------------------||
 |
 | (Gtr. 2)
e||------------------|---------------------|---------------------||
B||------------------|---------------------|---------------------||
G||------------------|-2-------------------|-2-2-2-2-2-2-2-2-----||
D||------------------|-2-------------------|-2-2-2-2-2-2-2-2-2-2-||
A||--------------2-2-|-0-------------------|-0-0-0-0-0-0-0-0-2-2-||
E||--------------0-0-|---------------------|-----------------0-0-||

   (Gtr. 1)
e||---------------------|---------------------|---------------------||
B||---------------------|---------------------|---------------------||
G||---------4--6--------|---------------------|----------4-6--------||
D||-6-6-6-7-------6--7--|-6-6-4-2-4-2-4/6/4/2-|--6-6-6-7-----6--7---||
A||---------------------|---------------------|---------------------||
E||---------------------|---------------------|---------------------||
 |
 | (Gtr. 2)
e||---------------------|---------------------|---------------------||
B||---------------------|---------------------|---------------------||
G||---------------------|-2-2-2-2-2-2-2-2-----|-----------7-7-7-7-7-||
D||-4-4-4-4-4-4-4-4-2-2-|-2-2-2-2-2-2-2-2-2-2-|-4-4-4-4-4-7-7-7-7-7-||
A||-4-4-4-4-4-4-4-4-2-2-|-0-0-0-0-0-0-0-0-2-2-|-4-4-4-4-4-5-5-5-5-5-||
E||-2-2-2-2-2-2-2-2-0-0-|-----------------0-0-|-2-2-2-2-2-----------||


Verse Riff 1st time
   (Gtr. 1) - (light Strum)
e||-----------------------------------------||
B||-----------------------------------------||
G||---1---1---1---1---1---1---1---1---1---1-||
D||-----------------------------------------||
A||-0---0---0---0---------------------------||
E||-----------------0---2---2---2---2---0---||
 |
 | (Gtr. 2) - (w/dist but quiet)
e||-----------------------------------------||
B||-----------------------------------------||
G||-2---------------------------------------||
D||-2---------------2-2-4---------------2-2-||
A||-0---------------2-2-4---------------2-2-||
E||-----------------0-0-2---------------0-0-||

   (Gtr. 1)
e||---------------------------------------------||
B||---------------------------------------------||
G||---2---2---1---1---1-----------------0---0h2-||
D||-0---0---0---0---0-----3---3---3---3---------||
A||---------------------5---5---5---5-----3-----||
E||---------------------------------------------||
 |
 | (Gtr. 2)
e||----------------------------------------------||
B||----------------------------------------------||
G||-------5--------------------------------------||
D||---3------------------------------------------||
A||-5---5----------------------------------------||
E||----------------------------------------------||

Verse riff rest of the time
   (Gtr. 1)
e||-----------------------------------------||
B||-----------------------------------------||
G||---1---1---1---1---1---1---1---1---1---1-||
D||-----------------------------------------||
A||-0---0---0---0---------------------------||
E||-----------------0---2---2---2---2---0---||
 |
 | (Gtr. 2)
e||-----------------------------------------||
B||-----------------------------------------||
G||-2---------------------------------------||
D||-2---------------2-2-4---------------2-2-||
A||-0---------------2-2-4---------------2-2-||
E||-----------------0-0-2---------------0-0-||

   (Gtr. 1)
e||-------------------------------------------------||
B||-------------------------------------------------||
G||---2---2---1---1---1-----6-4-6b7b6-a-6-4-6b7b6-4-||
D||-0---0---0---0---0-------------------------------||
A||-------------------------------------------------||
E||-------------------------------------------------||
 |
 | (Gtr. 2)
e||-------------------------------------------------||
B||-------------------------------------------------||
G||-2-----------------------------------------------||
D||-0-----------------------------------------------||
A||-------------------------------------------------||
E||-------------------------------------------------||


Chorus
   (Gtr. 1)
e||-------------------------------------------------------------||
B||-------------------------------------------------------------||
G||---2---2---2---2---2---2---2---2---2---2---2---2---2---2---2-||
D||-------------------------------------------------------------||
A||-0---0---0---0---0---0---0---0---0---0---0---0---0---0---0---||
E||-------------------------------------------------------------||
 |
 | (Gtr. 2)
e||-----------------------------------------------------------------||
B||-----------------------------------------------------------------||
G||-2-2-2-2-2-2-2-2-10-10-10-10-10-10-10-10-11-11-11-11-11-11-11-11-||
D||-2-2-2-2-2-2-2-2-------------------------------------------------||
A||-0-0-0-0-0-0-0-0-8--8--8--8--8--8--8--8--9--9--9--9--9--9--9--9--||
E||-----------------------------------------------------------------||

   (Gtr. 1)
e||-3-3-3-3-3-3-3-3-3-3-3-3-3-3-3-3-3-3-3-3-3-3--||
B||-3-3-3-3-3-3-3-3-3-3-3-3-3-3-3-3-3-3-3-3-3-3--||
G||-0-0-0-0-0-0-0-0-0-0-0-0-0-0-0-0-0-0-0-0-0-0--||
D||-0-0-0-0-0-0-0-0-0-0-0-0-0-0-0-0-0-0-0-0-0-0--||
A||-2-2-2-2-2-2-2-2-2-2-2-2-2-2-2-2-2-2-2-2-2-2--||
E||-3-3-3-3-3-3-3-3-3-3-3-3-3-3-3-3-3-3-3-3-3-3--||
 |
 | (Gtr. 2)
e||----------------------------------------------||
B||----------------------------------------------||
G||-12-12-12-12/14-14-14-14/16-16-16-16/18-18-18-||
D||----------------------------------------------||
A||-10-10-10-10/12-12-12-12/14-14-14-14/16-16-16-||
E||----------------------------------------------||

   (Gtr. 1)
e||----------------------------------------------------||
B||-7---7-----7-----7----7--6---6-----6----6-----6-----||
G||-6-6---6-----6-----6-----5-5---5-----5----5---------||
D||-7-------7-----7-----7---7-------7-----7----7---2-2-||
A||-5-----------------------5----------------------2-2-||
E||------------------------------------------------0-0-||
 |
 | (Gtr. 2)
e||----------------------------------------------------||
B||-7-----------------------6--------------------------||
G||-6-----------------------5--------------------------||
D||-7-----------------------7----------------------2-2-||
A||-5-----------------------5----------------------2-2-||
E||------------------------------------------------0-0-||


Bridge
   (Gtr. 1)
e||-0---0---0---0---0---0--||
B||-0---0---0---0---0---0--||
G||-9---9---9---9---9---9--||
D||-9---9---9---9---9---9--||
A||-7---7---7---7---7---7--||
E||-0---0---0---0---0---0--||
 |
 | (Gtr. 2)
e||--------------------------||
B||--------------------------||
G||-9-9-9--------------------|| (x4)
D||-9-9-9--------------------||
A||-7-7-7--------------------||
E||--------------------------||

   (Gtr. 1)
e||-0---0---0---0---0---0--||
B||-0---0---0---0---0---0--||
G||-9---9---9---9---9---9--||
D||-9---9---9---9---9---9--||
A||-7---7---7---7---7---7--||
E||-0---0---0---0---0---0--||
 |
 | (Gtr. 2)
e||-------------------------||
B||-------------------------||
G||-------------------------|| (x3)
D||-2-2-2-0-----------------||
A||----------4-2---0-2/4----||
E||--------------4-------0--||

   (Gtr. 1)
e||-0---0---0---0---0--0-0-0-||
B||-0---0---0---0---0--0-0-0-||
G||-9---9---9---9---9--9-9-9-||
D||-9---9---9---9---9--9-9-9-||
A||-7---7---7---7---7--7-7-7-||
E||-0---0---0---0---0--0-0-0-||
 |
 |  (Gtr. 2)
e||--------------------------||
B||--------------------------||
G||--------------------------||
D||-2-2-2-0------------------||
A||----------4-2---0-2/4-----||
E||--------------4-------0-0-||


End
   (Gtr. 1)
e||----------------------|-----------------------||
B||----------------------|-----------------------||
G||----------------------|--------------------2--||
D||--6-6-4-2-4-2-4/6/4/2-|-6-6-4-2-4-2-4/6/9--2--||
A||----------------------|--------------------0--||
E||----------------------|-----------------------||
 |
 | (Gtr. 2)
e||----------------------|-----------------------||
B||----------------------|-----------------------||
G||-2-2-2-2-2-2-2-2------|-2-2-2-2-2-2-2------2--||
D||-2-2-2-2-2-2-2-2-2-2--|-2-2-2-2-2-2-2-2-2--2--||
A||-0-0-0-0-0-0-0-0-2-2--|-0-0-0-0-0-0-0-2-2--0--||
E||-----------------0-0--|---------------0-0-----||

Dave     
Добавлено: 04.11.2013
Другие материалы по этой песне:

Страница создана 26.02.2012
http://primanota.ru/foo-fighters/generator-chords.htm
Привет, Гость.
Предлагаем пройти революционный курс по гитаре.
Подарок от PrimaNota.Ru, забирай!