PrimaNota.ru - самый крупный в мире бесплатный архив песенных текстов, аккордов, табулатур и нот


Foo Fighters - Cheer Up Boys Your Make-up Is Running - таба, видео

Регистрация Запомнить меня
Войти через:  Facebook Google Twitter Vk Yandex Mail.ru

Foo Fighters - Cheer Up Boys Your Make-up Is Running - таба, видео

Печатать
Просмотров: 102
Foo Fighters - Cheer Up Boys, Your Makeup Is Running
Album: ???
Instrument: Guitar
Tuning: eBGDAD
 
Intro
Gtr.1
e||--------------------------------|------------------|--------------||
B||--------------------------------|------------------|--------------||
G||--9-9-9-9-9-9-9-9-9-9-9-9-9-9-9-|------------------|--------2-2-2-||
D||--9-9-9-9-9-9-9-9-9-9-9-9-9-9-9-|------------------|--4-4-4-2-2-2-||
A||--7-7-7-7-7-7-7-7-7-7-7-7-7-7-7-|----------4-5-7-0-|--4-4-4-0-0-0-||
E||--------------------------------|--4-5-7-0---------|--2-2-2-------||
Gtr.2
e||--------------------------------|------------------||
B||--------------------------------|------------------||
G||--------------------------------|------------------||
D||--------------------------------|------------------||
A||------------------------4-5-7-0-|----------4-5-7-0-||
E||----------------4-5-7-0---------|--4-5-7-0---------||
 
Verse
Gtr.1
e||------------------------------3-3-||
B||--------------------------3-3-3-3-||
G||--9-9-9-9-9-9-9-9-2-2-2-2-2-2-0-0-||
D||--9-9-9-9-9-9-9-9-2-2-2-2-0-0-0-0-||
A||--7-7-7-7-6-6-6-6-0-0-0-0-----0-0-||
E||------------------------------3-3-||
Haven't figured out Gtr.2 yet... Sometime soon!
 
Pre-Chorus
Gtr.1
e||----------------||
B||----------------||
G||9-9-9-9-9-9-9-9-||
D||9-9-9-9-9-9-9-9-||
A||7-7-7-7-7-7-7-7-||
E||----------------||
Gtr.2
e||----------------||
B||----------------||
G||----------------||
D||----------------||
A||--------4-5-7-0-||
E||4-5-7-0---------||
 
Chorus
Gtr.1
e||--------------------------3-3-3-------||
B||--------------------3-3-3-3-3-3-------||
G||--------2-2-2-1-1-1-2-2-2-0-0-0-------||
D||--4-4-4-2-2-2-2-2-2-0-0-0-0-0-0-2-2-2-||
A||--4-4-4-0-0-0-2-2-2-------2-2-2-2-2-2-||
E||--2-2-2-------0-0-0-------3-3-3-0-0-0-||
Haven't figured out Gtr.2 yet.
 
Bridge - Goes something like this and then has a second part on a higher fret.
I haven't figured out how that goes yet.
Gtr.1 (PM)
e||--------------------------------------------------------------------||
B||--------------------------------------------------------------------||
G||----------------------------------4-4-4-4-2-2-2-2---------2---------||
D||--2-2-2-2-4-4-4-4-6-6-6-6-7-7-7-7-4-4-4-4-2-2-2-2-2-2-2-2-2-2-2-2-2-||
A||--2-2-2-2-4-4-4-4-6-6-6-6-7-7-7-7-2-2-2-2-0-0-0-0-2-2-2-2-0-2-2-2-2-||
E||--0-0-0-0-2-2-2-2-4-4-4-4-5-5-5-5-----------------0-0-0-0---0-0-0-0-||
 
Solo
Gtr.1
e||-------------------------||
B||-------------------------||
G||--9-9-9-7^9-7-7-7^12-7-9-||
D||-------------------------||
A||-------------------------||
E||-------------------------||
Gtr.2 plays Chorus-Gtr.1
On the last Chorus repeats something like the solo on Gtr.2. Like this:
e||-----------------------||
B||-----------------------||
G||--9-9-7-9-4-7-7-12-7-9-||
D||--x-x-x-x-x-x-x-x--x-x-||
A||--7-7-5-7-2-5-5-10-5-7-||
E||-----------------------||
 
Outro - Repeat Intro


It was meant to be but all along, it never meant to end,
Never stopped to ask you why, the feeling
Добавлено: 10.09.2013
Другие материалы по этой песне:
  • Аккорды и текст

Страница создана 10.09.2013
http://primanota.ru/foo-fighters/cheer-up-boys-your-make-up-is-running-2-chords.htm
Привет, Гость.
Предлагаем пройти революционный курс по гитаре.
Подарок от PrimaNota.Ru, забирай!