PrimaNota.ru - самый крупный в мире бесплатный архив песенных текстов, аккордов, табулатур и нот


Foo Fighters - Burn Away - аккорды и текст, таба, видео

Регистрация Запомнить меня
Войти через:  Facebook Google Twitter Vk Yandex Mail.ru

Foo Fighters - Burn Away - аккорды и текст, таба, видео

Печатать
Просмотров: 242
Burn Away
Foo Fighters
Artist: Foo Fighters
Song: Burn Away
Album: One By One
Tabbed by: Colin Boylan (HairyJapeneseGoldfish)
Date: 30/10/02
Email: colin_boylan@hotmail.com

This tab is almost 100% correct. You will have to
listen to cd to get timing and that. Parts of it
are hard to hear

                DROP D TUNING
INTRO: x2
e|--------------------------------------------------
b|--------------------------------------------------
g|-----------------------------7-7-7-7-7-7-7-7-7-7--
d|--7-7--5--9----7--5--7--9----7-7-7-7-7-7-7-7-7-7--
a|--7-7--5--9----7--5--7--9----5-5-5-5-5-5-5-5-5-5--
E|--7-7--5--9----7--5--7--9----0-0-0-0-0-0-0-0-0-0--

AFTER THAT: Rhythm Guitar x2
    A      G                A      D
e|--------------------------------------------------
b|--------------------------------------------------
g|--------------------------------------------------
d|--7-7-7--5-5-5-5-5-5-5-5--7-7-7--0-0-0-0-0-0-0-0--
a|--7-7-7--5-5-5-5-5-5-5-5--7-7-7--0-0-0-0-0-0-0-0--
E|--7-7-7--5-5-5-5-5-5-5-5--7-7-7--0-0-0-0-0-0-0-0--

RIFF: this is a little riff that is really hard to
      pick up  but is essential to play over rhythm>
    A      G
e|--------------------------------------------------
b|--------------------------------------------------
g|--------------------------------------------------
d|--------------------------------------------------
a|--------------------------------------------------
E|--7-7-7--5--9--7-5-7---9--7---0--0----------------

    A      D
e|--------------------------------------------------
b|--------------------------------------------------
g|--------------------------------------------------
d|--------------------------------------------------
a|--------------------------------------------------
E|--7-7-7--12--9-7-5--7--9--7--0---0----------------

VERSE: Guitar1  mute w/ dist.
    A      G              A      D
e|--------------------------------------------------
b|--------------------------------------------------
g|--------------------------------------------------
d|--7-7-7--5-5-5-5-5-5-5--7-7-7--0-0-0-0-0-0-0-0----
a|--7-7-7--5-5-5-5-5-5-5--7-7-7--0-0-0-0-0-0-0-0----
E|--7-7-7--5-5-5-5-5-5-5--7-7-7--0-0-0-0-0-0-0-0----

VERSE: Guitar2  /clean
e|---------3---------------------2-----------------
b|--2------3--------------2------3-----------------
g|--2------0--------------2------2-----------------
d|--2------0--------------2------0-----------------
a|--0---------------------0------------------------
E|-------------------------------------------------

CHORUS: Burn Away.....
e|--------------------------------------------------
b|--------------------------------------------------
g|-----------------------------------7-7-7-7--------
d|--5-5-5--/9--4-4-4-/7--2-2-2-/7----7-7-7-7--------
a|--5-5-5--/9--4-4-4-/7--2-2-2-/7----5-5-5-5--------
E|--5-5-5--/9--4-4-4-/7--2-2-2-/7----0-0-0-0--------

INTERLUDE: for 2 bars
e|--------------------------------------------------
b|--------------------------------------------------
g|-------------------7-7-7-7------------------------
d|--5-5-5-5-7-7-7-7--7-7-7-7---5-5-5-5--------------
a|--5-5-5-5-7-7-7-7--5-5-5-5---5-5-5-5--------------
E|--5-5-5-5-7-7-7-7--0-0-0-0---5-5-5-5--------------

3RD BAR
e|--------------------------------------------------
b|--------------------------------------------------
g|------------------4-4-4--6-6-6--------------------
d|--5-5-5-5-7-7-7-7-4-4-4--6-6-6--5-5-5-5--2-2--5-5-
a|--5-5-5-5-7-7-7-7-2-2-2--3-3-3--5-5-5-5--2-2--5-5-
E|--5-5-5-5-7-7-7-7---------------5-5-5-5--2-2--5-5-

Part Now tabbed up above. goes into chorus again

OUTRO:
e|--------------------------------------------------
b|--------------------------------------------------
g|--------------------------------------------------
d|--9-9-9-9-9--7-7-7-7-7-7---5-5-5-5-5-5-5-5-5-5-5--
a|--9-9-9-9-9--7-7-7-7-7-7---5-5-5-5-5-5-5-5-5-5-5--
E|--9-9-9-9-9--7-7-7-7-7-7---5-5-5-5-5-5-5-5-5-5-5--

Repeat more part up above...

FINISH ON:
e|--------------------------------------------------
b|--------------------------------------------------
g|--------------------------------------------------
d|--7--5------7---0---------------------------------
a|--7--5------7---0---------------------------------
E|--7--5------7---0---------------------------------

Thats it comments, complaints bla bla bla email me.
     
Добавлено: 29.08.2013
Другие материалы по этой песне:

Страница создана 22.04.2012
http://primanota.ru/foo-fighters/burn-away-chords.htm
Привет, Гость.
Предлагаем пройти революционный курс по гитаре.
Подарок от PrimaNota.Ru, забирай!