PrimaNota.ru - самый крупный в мире бесплатный архив песенных текстов, аккордов, табулатур и нот


Foo Fighters - Better Off - таба, видео

Регистрация Запомнить меня
Войти через:  Facebook Google Twitter Vk Yandex Mail.ru

Foo Fighters - Better Off - таба, видео

Печатать
Просмотров: 147
Авторы: Pat Smear, Dave Grohl, Chris Shiflett, Nate Mendel, Taylor Hawkins

Band: Foo Fighters
Song: Better Off

Standard Tuning

I couldn't find any tabs for this song so I decided to tab it myself. I don't 
think this tab is very good but I did my best.

Intro

Guitar 1
e|------------------|
B|------------------|
G|------------------|
D|------------------| x3
A|---11-13----------|
E|-6-------6--9-8-9b|

Guitar 2

e|------------------|
B|------------------|
G|------------------|
D|------------------| x2
A|---11-13----7-6-7b|
E|-6-------6--------|

Guitar 3

e|------------------|
B|------------------|
G|------------------|
D|------------6-5-6b| x1
A|---11-13----------|
E|-6-------6--------|

All Guitars

e|------------------|
B|------------------|
G|------------------|
D|-8-8-8-8-8-8-8-8-8|
A|------------------|
E|-6-6-6-6-6-6-6-6-6|

Verse

Guitar 1

e|------------------------------------|
B|------------------------------------|
G|------------------------------------|
D|-8--8--8--8--8--8--8--8-7/8--8--8--8|
A|------------------------------------|
E|-6--6--6--6--6--6--6--6-5/6--6--6--6|

e|-----------------------------------|
B|-----------------------------------|
G|-----------------------------------|
D|-5--5--5--5--4--4--4--4--3--3--3--3|
A|-----------------------------------|
E|-3--3--3--3--2--2--2--2--1--1--1--1|

e|--------------------------|
B|--------------------------|
G|--------------------------|
D|-7--7--7--7--8--8--8--8--7|
A|--------------------------|
E|-5--5--5--5--6--6--6--6--5|

Guitar 2

e|------------------------------------|
B|------------------------------------|
G|------------------------------------|
D|-8--8--8--8--8--8--8--8-7/8--8--8--8|
A|------------------------------------|
E|-6--6--6--6--6--6--6--6-5/6--6--6--6|

e|-----------------------------------|
B|-----------------------------------|
G|-----------------------------------|
D|-5--5--5--5--4--4--4--4--3--3--3--3|
A|-----------------------------------|
E|-3--3--3--3--2--2--2--2--1--1--1--1|

e|-----------|
B|-----------|
G|-----------|
D|-7--7--7--7|
A|-----------|
E|-5--5--5--5|

Pre-Chorus

Guitar 1
e|------------------|
B|------------------|
G|------------------|
D|------------------| x3
A|---11-13----------|
E|-6-------6--9-8-9b|

Guitar 2

e|------------------|
B|------------------|
G|------------------|
D|------------------| x2
A|---11-13----7-6-7b|
E|-6-------6--------|

Guitar 3

e|------------------|
B|------------------|
G|------------------|
D|------------6-5-6b| x1
A|---11-13----------|
E|-6-------6--------|

All Guitars

e|------------------|
B|------------------|
G|------------------|
D|-8-8-8-8-8-8-8-8-8|
A|------------------|
E|-6-6-6-6-6-6-6-6-6|

Chorus x2

All Guitars

e|-----------------------|
B|-----------------------|
G|-----------------------|
D|-5--5--5--5--4--4--4--4|
A|-----------------------|
E|-3--3--3--3--2--2--2--2|


e|----------------|
B|----------------|
G|-3-2-3-2-3-2-3-2|

e|----------------|
B|----------------|
G|-6-5-6-5-6-5-6-5|

e|----------------|
B|----------------|
G|-5-4-5-4-5-4-5-4|

e|------------------------|
B|------------------------|   
G|-3-4-4-3-4-4-3-4-4-3-4-4|  
                            
e|------------------|      
B|------------------|     
G|------------------|    
D|-8-8-8-8-8-8-8-8-8|   
A|------------------|  
E|-6-6-6-6-6-6-6-6-6|

Repeat Verse
Repeat Pre-Chorus
Repeat Chorus

Bridge

Guitar 1
e|-----------------------|
B|-----------------------|
G|-----------------------|
D|-5-----------4---------|
A|-----------------------|
E|-3-----------2---------|

e|-----------------------|
B|-----------------------|
G|-3-----------3---------|
D|-----------------------|
A|-1-----------1---------|
E|-----------------------|

e|-----------------------|
B|-----------------------|
G|-----------------------|
D|-5-----------4---------|
A|-----------------------|
E|-3-----------2---------|

e|-----------------------|
B|-----------------------|
G|-3---------------------|
D|-----------------------|
A|-1-------------------13|
E|-------------6-10-13---|

Guitar 2
e|-----------------------|
B|-----------------------|
G|-----------------------|
D|-5--5--5--5--4--4--4--4|
A|-----------------------|
E|-3--3--3--3--2--2--2--2|

e|-----------------------|
B|-----------------------|
G|-3--3--3--3------------|
D|-------------6--6--6--6|
A|-1--1--1--1------------|
E|-------------4--4--4--4|

e|-----------------------|
B|-----------------------|
G|-----------------------|
D|-5--5--5--5--4--4--4--4|
A|-----------------------|
E|-3--3--3--3--2--2--2--2|

All Guitars
e|------------------------|
B|------------------------|
G|------------------------|
D|-------5----------------| x3
A|---5-8---3-1------------|
E|-6-----------3-6-8-2-5-7|

e|------------------------|
B|------------------------|
G|------------------------|
D|-------5-----5-5-5-4-4-4|
A|---5-8---3-1------------|
E|-6-----------3-3-3-2-2-2|

Chorus x2

All Guitars

e|-----------------------|
B|-----------------------|
G|-----------------------|
D|-5--5--5--5--4--4--4--4|
A|-----------------------|
E|-3--3--3--3--2--2--2--2|


e|----------------|
B|----------------|
G|-3-2-3-2-3-2-3-2|

e|----------------|
B|----------------|
G|-6-5-6-5-6-5-6-5|

e|----------------|
B|----------------|
G|-5-4-5-4-5-4-5-4|

e|------------------------|
B|------------------------|   
G|-3-4-4-3-4-4-3-4-4-3-4-4|  
                            
e|------------------|      
B|------------------|     
G|------------------|    
D|-8-8-8-8-8-8-8-8-8|   
A|------------------|  
E|-6-6-6-6-6-6-6-6-6|

After-Chorus

All Guitars
e|-----------------------|
B|-----------------------|
G|-----------------------|
D|-5--5--5--5--4--4--4--4|
A|-----------------------|
E|-3--3--3--3--2--2--2--2|

e|-----------------------|
B|-----------------------|
G|-3--3--3--3------------|
D|-------------6--6--6--6|
A|-1--1--1--1------------|
E|-------------4--4--4--4|

e|-----------------------|
B|-----------------------|
G|-----------------------|
D|-5--5--5--5--4--4--4--4|
A|-----------------------|
E|-3--3--3--3--2--2--2--2|

e|------------------------|
B|------------------------|
G|------------------------|
D|-------5----------------| x3
A|---5-8---3-1------------|
E|-6-----------3-6-8-2-5-7|

e|------------------------|
B|------------------------|
G|------------------------|
D|-------5-----5-5-5-4-4-4|
A|---5-8---3-1------------|
E|-6-----------3-3-3-2-2-2|

Outro

All Guitars
e|------------------------|
B|------------------------|
G|------------------------|
D|-8-8---8-8---5-5-5-4-4-4| x4
A|------------------------|
E|-6-6---6-6---3-3-3-2-2-2|

e|---------------|
B|---------------|
G|---------------|
D|-8-----------8\|
A|---------------|
E|-6-----------6\|

That's it! :)
Добавлено: 07.05.2012
Другие материалы по этой песне:

Страница создана 07.05.2012
http://primanota.ru/foo-fighters/better-off-chords.htm
Привет, Гость.
Предлагаем пройти революционный курс по гитаре.
Подарок от PrimaNota.Ru, забирай!