PrimaNota.ru - самый крупный в мире бесплатный архив песенных текстов, аккордов, табулатур и нот


Foals - Alabaster - текст песни, таба, бас-таба, видео

Регистрация Запомнить меня
Войти через:  Facebook Google Twitter Vk Yandex Mail.ru

Foals - Alabaster - текст песни, таба, бас-таба, видео

Печатать
Просмотров: 352
Авторы музыки: Foals
Авторы текста: Foals
Intro

Yannis - all 12s,13s,15s and 10s
e|12121312--------------------------------------------|
B|--------131313121212151513101010131313101013121013~-|
G|----------------------------------------------------|
D|----------------------------------------------------|
A|----------------------------------------------------|
E|----------------------------------------------------|

Jimmy
e|------------------------|
B|13-13-15-15-13-13-10-10-|
G|14-14-12-12-10-10-10-10-|
D|------------------------|
A|------------------------|
E|------------------------|

Verse

Jimmy plays Intro but there are some variations
e|---------15-------------|
B|13-13-15-15-13-13-10-10-|
G|14-14-12-12-10-10-10-10-|
D|------------------------|
A|------------------------|
E|------------------------|

e|---------------------------------|
B|13-13-15-15-13-13-10-10h12-------|
G|14-14-12-12-10-10-10-------10h12-|
D|---------------------------------|
A|---------------------------------|
E|---------------------------------|

Yannis

Sits out most of the verse but comes in playing this at the end
e|--------------------------------|
B|10~-10~-10~-10~-10~-10~-10~-10~-|
G|--------------------------------|
D|--------------------------------|
A|--------------------------------|
E|--------------------------------|

Chorus

Yannis
e|---------------------------------------|
B|10~-10~-10~-10~-10~-10~-10-------------|
G|---------------------------12-10----10-|
D|---------------------------------12----|
A|---------------------------------------|
E|---------------------------------------|

Jimmy
e|-------------------------------------------|
B|-------------------------------------------|
G|10-10-10-12-9-9-9-12-----------------------|
D|---------------------10-10-10-12-9-9-------|
A|-------------------------------------12-12-|
E|-------------------------------------------|

Break

Jimmy
e|--------------------------------|
B|--------------------------------|
G|--------------------------------|
D|--------------------------------|
A|0-0-0-0-0-0-0-0-0-0-0-0-0-0-0-0-|
E|--------------------------------|

Outro

Jimmy plays Chorus

Yannis plays this
e|------------------------------------------------------------------1010---|
B|--13--13131010-----13--13131010-----13--13131010---13131010---1313----12-|
G|10--10--------10-10--10--------10-10--10--------10---------10------------|
D|-------------------------------------------------------------------------|
A|-------------------------------------------------------------------------|
E|-------------------------------------------------------------------------|

e|----------1010-------------1010-------1010-------1010-------1010-------1010------|
B|12-13-1313----12-12-13-1313----12-1313----12-1313----12-1313----12-1313----12----|
G|---------------------------------------------------------------------------------|
D|---------------------------------------------------------------------------------|
A|---------------------------------------------------------------------------------|
E|---------------------------------------------------------------------------------|
Добавлено: 22.06.2012
Другие материалы по этой песне:
  • Аккорды и текст

Страница создана 22.06.2012
http://primanota.ru/foals/alabaster-chords.htm
Привет, Гость.
Предлагаем пройти революционный курс по гитаре.
Подарок от PrimaNota.Ru, забирай!