PrimaNota.ru - самый крупный в мире бесплатный архив песенных текстов, аккордов, табулатур и нот


Fleur - Теплые воды - аккорды и текст, видео

Регистрация Запомнить меня
Войти через:  Facebook Google Twitter Vk Yandex Mail.ru

Fleur - Теплые воды - аккорды и текст, видео

Печатать
Просмотров: 207
Теплые воды
Fleur
Куплет:
E|-----------------------------------------------------------------------------------------------------------------------
B|-----------------------------------------------------------------------------------------------------------------------
G|-----3-----3--------3-----3------3-----3--------3-----3-------3----3------3-----3--------0-----0-----------------------
D|--------5-----5--------5-----5-------5-----5--------5----5-------5---5-------5-----5--------0-----0----4---4-----------
A|--5---------------5--------------4--------------4--------------3-------------3---------------1------------------5----5-
E|---------------------------------------------------------------------------------------------------------------5-------

Припев:
E|----------------------------------------------------------------------------------------------------------------
B|-----3---3--------3-----3--------3-----3--------3-----3--------0---0--------0---0-------------------------------
G|--------4---4--------4-----4--------4-----4--------4-----4--------0---0-------0--0-----4--4--------4--4---------
D|--5-------------5---------------4--------------4----------------2--------------2---------------4--4--------4--4-
A|---------------------------------------------------------------------------------------------5-----------5------
E|----------------------------------------------------------------------------------------------------------------

Собираются в стаи киты
Ожидая на свет потомство,
они дрейфуют к южным морям
Как все в природе разумно и просто...
Небо, воздух и океан,
им все стихии подвластны.
Но что-то зовет их туда, где тепло
Туда, где безопасно...

Посреди бескрайних просторов,
под стынущими облаками
их ласкают упругие волны
нежными пенными гребешками...
Все в природе так просто,
все движется солнцу навстречу
И ничто не грозит их потомству,
ведь холод не может быть бесконечным...

Погружаясь и всплывая
Следуя зову природы
Обгоняя птичьи стаи
Они плывут в теплые воды

И пряча лицо в ладонях,
я думаю о завтрашнем дне
И вижу караваны китов
под свинцовым северным небом
Их глаза закрыты,
их мысли ничем не встревожены
Они плывут, не думая
о будущем и не помня о прошлом.

И когда одиночество через край
наполняет уставшее сердце, -
нам снится кем-то обещанный рай,
место, где мы бы смогли отогреться
Островок покоя
среди хаоса и круговерти
Там, где кто-нибудь нас укроет
от ледяного дыхания смерти...

Посреди бескрайних просторов
под стынущими облаками
скользят киты и огромные волны
рассекают плавниками...
И я плыву вместе с ними,
преодолев невозможное
Просто плыву, не думая
о будущем и не помня о прошлом...
Добавлено: 17.02.2016
Другие материалы по этой песне:
  • Аккорды и текст

Страница создана 26.09.2013
http://primanota.ru/fleur/teplye-vody-chords.htm
Привет, Гость.
Предлагаем пройти революционный курс по гитаре.
Подарок от PrimaNota.Ru, забирай!