PrimaNota.ru - самый крупный в мире бесплатный архив песенных текстов, аккордов, табулатур и нот


Fleetwood Mac - Trinity - текст песни, таба, видео

Регистрация Запомнить меня
Войти через:  Facebook Google Twitter Vk Yandex Mail.ru

Fleetwood Mac - Trinity - текст песни, таба, видео

Печатать
Просмотров: 60
Новый альбом группы 'Черный Кузнец' по культовому сериалу 'Сверхъестественное'!
Trinity by Danny Kirwan 

You have to listen to the song to get the feel & groove which the tab cannot convey
There is some ad lib guitar solo at the start, but I started the song from the main 
opening riff  

Main Guitar Riff 

   D                      C           G                  G       
 E -------------------------------------------------------------------------|
 B -------------------------------------------------------------------------|
 G -------------------------------------------------------------------------|
 D -----------------2--4----------------------------------------------------|
 A ---- -5--5---5----------3--2--3--5---------------------------3-----------|
 E -5--7------------------------------3--2--3---5---3--2--3--5------5---3---|

   D                      C           G                  G       
 E -------------------------------------------------------------------------|
 B -------------------------------------------------------------------------|
 G -------------------------------------------------------------------------|
 D -----------------2--4----------------------------------------------------|
 A ---- -5--5---5----------3--2--3--5---------------------------3-----------|
 E -5--7------------------------------3--2--3---5---3--2--3--5------5---3---|


   He came down from   Trinity           a midtown boy from home 
   D                   C                 G                D
 E ---------------------------------------------------------------------|
 B ---------------------------------------------------------------------|
 G ---------------------------------------------------------------------|
 D ---------------------------------------------------------------------|
 A -5--5---------5-----3--3----------3-----------3---5-----5-5---------5|
 E -------7--5----------------3---5------3---3------------------7--5----|


   In the dirt walking miles before     and dreaming of his thirst
   D                   C                 G                D
 E ---------------------------------------------------------------------|
 B ---------------------------------------------------------------------|
 G ---------------------------------------------------------------------|
 D ---------------------------------------------------------------------|
 A -5--5---------5-----3--3----------3-----------3---5-----5-5---------5|
 E -------7--5----------------3---5------3---3------------------7--5----|


   Oh on this way 
   C          D
 E ------------------------------------------------------------------|
 B ------------------------------------------------------------------|
 G ------------------------------------------------------------------|
 D --------------------------7---------------------------------------|
 A -----------------5--7--9-------9--7--5----------------------------|
 E ----------------------------------------7-------------------------|
                                              
   He had to  go  
   C          D
 E ------------------------------------------------------------------|
 B ------------------------------------------------------------------|
 G ------------------------------------------------------------------|
 D --------------------------7---------------------------------------|
 A -----------------5--7--9-------9--7--5----------------------------|
 E ----------------------------------------7-------------------------|


   Oh on this way 
   C          D
 E -----------------------------------------------------------------|
 B -----------------------------------------------------------------|
 G -----------------------------------------------------------------|
 D --------------------------7--------------------------------------|
 A -----------------5--7--9-------9--7--5-----------3--2---0----0---|
 E ----------------------------------------7-----------------3------|

   D              C                                        

 e ----------------------------------------------------------------|
 B ----------------------------------------------------------------|
 G ----------------------------------------------------------------| Play riff 4 times 
 D ----------------------------------------------------------------|
 A ---- --5--5--2--3---5--3--2-------------------------------------|
 E -5--7------------------------5--3--5--3---5---------------------|

   G \\\   G \\\  G \\\  G \\\ G \\\ G \\\ G \\\   G  Ab   A                                
 E -----------------------------------------------------------------|
 B -----------------------------------------------------------------|
 G -----------------------------------------------------------------|
 D -----------------------------------------------------------------|
 A -----------------------------------------------------------------|
 E -----------------------------------------------------------------|







   D                      C           G                  G       
 E -------------------------------------------------------------------------|
 B -------------------------------------------------------------------------|
 G -------------------------------------------------------------------------|
 D -----------------2--4----------------------------------------------------|
 A ---- -5--5---5----------3--2--3--5---------------------------3-----------|
 E -5--7------------------------------3--2--3---5---3--2--3--5------5---3---|

   D                      C           G                  G       
 E -------------------------------------------------------------------------|
 B -------------------------------------------------------------------------|
 G -------------------------------------------------------------------------|
 D -----------------2--4----------------------------------------------------|
 A ---- -5--5---5----------3--2--3--5---------------------------3-----------|
 E -5--7------------------------------3--2--3---5---3--2--3--5------5---3---|


   He came down from   Trinity           a midtown boy from home 
   D                   C                 G                D
 E ---------------------------------------------------------------------|
 B ---------------------------------------------------------------------|
 G ---------------------------------------------------------------------|
 D ---------------------------------------------------------------------|
 A -5--5---------5-----3--3----------3-----------3---5-----5-5---------5|
 E -------7--5----------------3---5------3---3------------------7--5----|


   In the dirt walking miles before     and dreaming of his thirst
   D                   C                 G                D
 E ---------------------------------------------------------------------|
 B ---------------------------------------------------------------------|
 G ---------------------------------------------------------------------|
 D ---------------------------------------------------------------------|
 A -5--5---------5-----3--3----------3-----------3---5-----5-5---------5|
 E -------7--5----------------3---5------3---3------------------7--5----|


   Oh on this way 
   C          D
 E ------------------------------------------------------------------|
 B ------------------------------------------------------------------|
 G ------------------------------------------------------------------|
 D --------------------------7---------------------------------------|
 A -----------------5--7--9-------9--7--5----------------------------|
 E ----------------------------------------7-------------------------|
                                              
   He had to  go  
   C          D
 E ------------------------------------------------------------------|
 B ------------------------------------------------------------------|
 G ------------------------------------------------------------------|
 D --------------------------7---------------------------------------|
 A -----------------5--7--9-------9--7--5----------------------------|
 E ----------------------------------------7-------------------------|


   Oh on this way 
   C          D
 E -----------------------------------------------------------------|
 B -----------------------------------------------------------------|
 G -----------------------------------------------------------------|
 D --------------------------7--------------------------------------|
 A -----------------5--7--9-------9--7--5-----------3--2---0----0---|
 E ----------------------------------------7-----------------3------|

Continue playing over guitar solo  
   D                      C           G                  G       
 E -------------------------------------------------------------------------|
 B -------------------------------------------------------------------------|
 G -------------------------------------------------------------------------|
 D -----------------2--4----------------------------------------------------|
 A ---- -5--5---5----------3--2--3--5---------------------------3-----------|
 E -5--7------------------------------3--2--3---5---3--2--3--5------5---3---|
Добавлено: 01.04.2018
Другие материалы по этой песне:
  • Аккорды и текст

Страница создана 10.08.2013
http://primanota.ru/fleetwood-mac/trinity-chords.htm
Привет, Гость.
Предлагаем пройти революционный курс по гитаре.
Подарок от PrimaNota.Ru, забирай!