PrimaNota.ru - самый крупный в мире бесплатный архив песенных текстов, аккордов, табулатур и нот


Fleetwood Mac - All Over Again - Ive Got A Mind To Give Up Living - таба, видео

Регистрация Запомнить меня
Войти через:  Facebook Google Twitter Vk Yandex Mail.ru

Fleetwood Mac - All Over Again - Ive Got A Mind To Give Up Living - таба, видео

Печатать
Просмотров: 144
Peter Green's Fleetwood Mac - "All Over Again/I've Got A Mind To Give Up Living"
Live from The Warehouse in New Orleans 1970
(BB King cover by Green)

This is basically just in G minor blues pentatonic scale.

Gt1 (Danny Kirwan) is using a Les Paul with neck pup and a little overdrive and reverb.

Gt2 (Peter Green) is Green's famous Les Paul, starting with neck, then switches to 
bridge a couple of times.
You'll need reverb and overdrive. Roll back the volume knob for the fills.

The main solo needs to be touched up in a few places which I'll do in the near future, 
but this is pretty much
spot on. I tabbed it a year ago and have just been playing it since. Posting it now for 
the PG fans. I also did
the Worried Dream live tab but hadn't made an account here yet. Listen to the song (it's 
on youtube) to get an
idea of timing/speed of soloing. Enjoy! -JW

Intro
|--------3-----------1--------------------------------|
|------3---3-------1---1---------3-----------2--------|
|----3-------3---2-------2-----5---5-------4---4------|
|--5-----------3-------------4-------4---3-------3----|
|--------------------------5-----------4-----------4--|
|-----------------------------------------------------|

Guitar 1 (Danny Kirwan)
|--------3-----------1--------------------------------|
|------3---3-------1---1---------3-----------2--------|
|----3-------3---2-------2-----5---5-------4---4------|
|--5-----------3-------------4-------4---3-------3----|
|--------------------------5-----------4-----------4--|
|-----------------------------------------------------|

Guitar 2 (Peter Green) - Neck pickup
|-------------10~~~---------------------------------------------------------|
|----10-11-13-------------13~~~--------11~~~-------10~~slidedown------------|
|-12------------------------------------------------------------------------|
|---------------------------------------------------------------------------|
|---------------------------------------------------------------------------|
|---------------------------------------------------------------------------|

"I've got a good mind...to give up living..." (Gtr 1 - start intro rhythm again)
|--------------------|
|--------------------|
|------3--5-3h5p3----|
|--3h5------------5--|
|--------------------|
|--------------------|

"And go shopping instead..."
|-----6----6-----------6-----|
|-6s8---8~---8p6---6h8---8~--|
|----------------7-----------|
|----------------------------|
|----------------------------|
|----------------------------|

"I've got a good mind...to give up living"
|-6-8-8b10r6---6-8-8b10r6-6-8-6---6-8-6-----------6--|
|------------8------------------8-------8-6---6-8----|
|-------------------------------------------7--------|
|----------------------------------------------------|
|----------------------------------------------------|
|----------------------------------------------------|

"And go shopping instead..."
|-6-8-8b10r6-------6---8---|
|------------8-6s8---8---8-|
|--------------------------|
|--------------------------|
|--------------------------|
|--------------------------|


"To pick out myself a tombstone"
|--------------|
|--------------|
|-5b7r3---3----|
|-------5---5--|
|--------------|
|--------------|

"Yes and have myself pronounced dead"
|------------3-----------------3--|
|------------------------------3--|
|-----3-5--5----5-3-5-3h5p3----3--|
|-3h5-----------------------5--5--|
|---------------------------------|
|---------------------------------|

"Now when I read your letter this morning"
|-----6-8b10r6-8-6--6-----|
|-6s8-----------------8-----|
|---------------------------|
|---------------------------|
|---------------------------|
|---------------------------|

"That was on your place in bed"
|-6-3------------------3---3--------------------------------------------------|
|-6---6p3-------------3--6---6-3---3------------------------------------------|
|---------5p3---3-5b7------------5---5p3--------------------------------------|
|-------------5--------------------------5------------------------------------|
|-----------------------------------------------------------------------------|
|-----------------------------------------------------------------------------|

"Now baby when I read your letter this morning"
|---------------------------------------------------------------------------|
|----------6-3--------------------------------------------------------------|
|-3b5r3--------3b5r3---3h5--------------------------------------------------|
|-------5------------5------------------------------------------------------|
|---------------------------------------------------------------------------|
|---------------------------------------------------------------------------|

"I said that was on your place in bed"
|---3-6-3---3-------------------3----------3-6p3-----6-3---|
|-6-------6---6-3-------------3----6p3-6b8-------6b8-----6-|
|-----------------5p3---3-5b7------------------------------|
|---------------------5------------------------------------|
|----------------------------------------------------------|
|----------------------------------------------------------|

"You know now that's when I decided"
|---3h6p3---3-------------------------|
|-6-------6---6p3---3-6-----6---------|
|-----------------5-----5b7---5b7r3---|
|-----------------------------------5-|
|-------------------------------------|
|-------------------------------------|

"Oh that I would be much better off dead"
|---------------------------------------------------------------------------|
|----------------6----------------------------------------------------------|
|-----3h5--3-5b7---7r5p3----------------------------------------------------|
|-3--5-------------------5~~~~~~~-------------------------------------------|
|---------------------------------------------------------------------------|
|---------------------------------------------------------------------------|

Solo 2:21 - Neck pickup
|----15~~~--------15~~~-----------------------------------------------------|
|-18------18~~-18------18~-15------------------------------------------15~~~|
|-----------------------------17b19r17~-15-14----------15-----17------------|
|---------------------------------------------17----17---17-17---17-17------|
|------------------------------------------------17-------------------------|
|---------------------------------------------------------------------------|

|---15-----------15----15h17h18-18b20~~-17p15----15-----------------------------|
|---18--15-15h18----18------------------------18--------------------------------|
|---------------------------------------------------17b19r17--------------------|
|-------------------------------------------------------------------------------|
|-------------------------------------------------------------------------------|
|-------------------------------------------------------------------------------|

|----15-------------------------15------------------------------------------|
|-------18-------------------------18-----------------18--------------------|
|-17-------17b19r17p15---------------17b19r17p15-17b19--17b19~~-------------|
|----------------------17----17---------------------------------------------|
|---------------------------------------------------------------------------|
|---------------------------------------------------------------------------|

|-----18----18------15--------------------------|
|-18b20hold---20r18----18-----------------------|
|-------------------------17brbrbrb~-15h17-17---|
|-----------------------------------------------|
|-----------------------------------------------|
|-----------------------------------------------|

2:57
|---15h18p15--15---15h18p15----15------------15-----------15--15---15-----------|
|-15--------18--18----------18---18b20r15---15-18b20~~~-----15--15-18-15--------|
|----------------------------------------17b19---------------------------17-----|
|-------------------------------------------------------------------------------|
|-------------------------------------------------------------------------------|
|-------------------------------------------------------------------------------|

|-------------------------------------------15------------------------------|
|---------------------------------------15--18-15----------------15---------|
|-15-17-17b19r17p15------17b19r17p15-17-----------17b19r17p15-17------------|
|-------------------17~~----------------------------------------------------|
|---------------------------------------------------------------------------|
|---------------------------------------------------------------------------|

|-15-----------------------------------------------------------|
|-18-15--------------------------15-----------------18---------|
|------17b19~19r17p15------15-17-----------15h17p15------------|
|---------------------17~~-----------17-17-------------17~-----|
|--------------------------------------------------------------|
|--------------------------------------------------------------|
                                                               3:24
|--------------------------------------------6h8-8b10r6-8b10r6-6------------|
|-------15h18p15~~----------6s8-8~~-6~~-8b10------------------8--8-6s3------|
|----15-------------------7-------------------------------------------------|
|-17------------------------------------------------------------------------|
|---------------------------------------------------------------------------|
|---------------------------------------------------------------------------|

|-----3-------------3-----------3--------------------------------|
|---3---6-3h6p3---3---3h6p3---3---6-3----------------------------|
|-5b------------5-----------5---------5-3---3--------------------|
|-----------------------------------------5---5-3----------------|
|-------------------------------------------------5-3-3h5p3------|
|----------------------------------------------------------------|
3:40
|---------------3-------------3---------------------------------------------|
|--------------3---6-3-------3--6--------11-13-13b15r13-11--13b15r13p11-----|
|---------3-5b---------5p3h5--------10-12-------------------------------12--|
|-----3-5-------------------------------------------------------------------|
|-3-5-----------------------------------------------------------------------|
|---------------------------------------------------------------------------|

|--------------------------------------------------------------------|
|-11-13-13b15-15r13r11---13b15r13-11--13b15r13p11----13b15r13p11-13--|
|----------------------12-------------------------12-----------------|
|--------------------------------------------------------------------|
|--------------------------------------------------------------------|
|--------------------------------------------------------------------|

|--------------------------------------------------------------------|
|-11----------11----13-----11p10--------------------8h11p8----8------|
|----12-10h12----12----12~-------12p10----10~h12-10--------10---10---|
|--------------------------------------12----------------------------|
|--------------------------------------------------------------------|
|--------------------------------------------------------------------|

3:59-4:05
|--------------------------------8------|
|-8h11p8---8-------------------8---11~~-|
|--------10--10-10p8---8h10-10b---------|
|--------------------10-----------------|
|---------------------------------------|
|---------------------------------------|

4:05
|----------------------------------------------------------15-------------------|
|-------18----------------18-17-15---------------------------15-18b20r18p15-----|
|-17b19~--17b19r17-15--15----------17-15-14-------------17b---------------------|
|-------------------------------------------17-15-------------------------------|
|-------------------------------------------------17----------------------------|
|-------------------------------------------------------------------------------|

4:13
|-18b20-18p15-----15-18p15-------------15--15---------------------------|
|-------------18b----------18br15----15--15--18------------18-----------|
|---------------------------------17b-----------17brbrbrbr----17br17-15-|
|-----------------------------------------------------------------------|
|-----------------------------------------------------------------------|
|-----------------------------------------------------------------------|
                                             4:18
|----------------------------------------15--15---15h18p15----15-18--|
|------------------15----15-------15-------15--15----------18--------|
|-17b19r17p15------15-17----17-15------------------------------------|
|-------------17--------------------17-------------------------------|
|--------------------------------------------------------------------|
|--------------------------------------------------------------------|

|-20-18-15-----------------------|
|----------18-15-18b20r18p15~~~--|
|--------------------------------|
|--------------------------------|
|--------------------------------|
|--------------------------------|
4:27 Bridge pickup
|-------15--15------15----15---15---15---15-18p15---15-18p15---15-18p15-----|
|-----15--15--15-18b---18b--18b--18b--18b--------18b--------18b---------18b-|
|-17b-----------------------------------------------------------------------|
|---------------------------------------------------------------------------|
|---------------------------------------------------------------------------|
|---------------------------------------------------------------------------|
4:33
|-15-18p15----18-20-18--18-15----------------------------|
|----------18-----------------18brp15--------------------|
|-------------------------------------17brbrbr-15h17-17--|
|--------------------------------------------------------|
|--------------------------------------------------------|
|--------------------------------------------------------|
4:36                                                4:40
|-------18-18---------------------------------------------------15-------15-|
|-18b20------18-18b20-(20)-(20)-18p15-18b20-(20)-18b20-20r18p15----18p15----|
|---------------------------------------------------------------------------|
|---------------------------------------------------------------------------|
|---------------------------------------------------------------------------|
|---------------------------------------------------------------------------|

4:41-4:46
|-------15-------------------------15----------------------15---------------|
|-18-15----18-------------------------18-----------------15---18------------|
|-------------17b19r15----15-17p15-------17b19r15----17b--------17b19r15----|
|----------------------17-------------------------17---------------------17-|
|---------------------------------------------------------------------------|
|---------------------------------------------------------------------------|

4:46
|------------------------------------------------------------------------15-|
|----------15-----------------18-15--------------15-18-15--------------15---|
|-17-15-17-15-17b19-15-17p15--------17b19r15---15---------17b19r15---15-----|
|-17-15-17----------------------------------17---------------------17-------|
|---------------------------------------------------------------------------|
|---------------------------------------------------------------------------|
4:51                          4:53
|-15-------------------15---15---------------------15-----------------------|
|-18-15-18-----------15-----18-15------------------15-18----18--------------|
|-------17br15--15-17-------------17br15---15-17p15------17b--19r15---------|
|-------------17------------------------17--------------------------17------|
|---------------------------------------------------------------------------|
|---------------------------------------------------------------------------|
4:56                          4:58
|-18b20-(20)-18b20-18--------15----------------15---------------------------|
|----------------------18p15----18-----------15---18p15---------------------|
|----------------------------------17b19r15-------------17b19r15------------|
|------------------------------------------17--------------------17---------|
|---------------------------------------------------------------------------|
|---------------------------------------------------------------------------|
5:01
|------------------------------------------------------------------------15-----|
|------18----------18b20-18-15-------------------------------------15-18-15-----|
|-17b19--19r17p15--------------17-15-17b19r15-----17b19r15----15-17-------------|
|----------------17---------------------------17-----------17-------------------|
|-------------------------------------------------------------------------------|
|-------------------------------------------------------------------------------|
5:06
|-18b20-18b20-(20)-18b20-18-------15h18p15----15-18b20r15------|
|---------------------------18p15----------18------------------|
|--------------------------------------------------------------|
|--------------------------------------------------------------|
|--------------------------------------------------------------|
|--------------------------------------------------------------|

5:11
|-18b20r15----18-15---------------------------------------------------------|
|----------18-------18p15----18-15------------------------------------------|
|-------------------------17b~-----17-15------------------------------------|
|----------------------------------------17-15----15------------------------|
|----------------------------------------------17----17-15------------------|
|----------------------------------------------------------17-15s13s10------|

5:18
|---------------------------------------------------------------------------|
|-3---3h6p3---3~-6p3----------------11---11-13-11-13-13b15r11---11----------|
|-3-5-------5-------5b7r3-----10-12---12----------------------12--12p10-----|
|-------------------------5~-------------------------------------------12---|
|---------------------------------------------------------------------------|
|---------------------------------------------------------------------------|

5:26
|---------------------------------------------------------------10----------|
|-----13b15r11--------13-11-13----------13b15r11------13b-11-13---13b15r11--|
|12~12---------12~-12-----------12-1212----------12-12-------------------12-|
|---------------------------------------------------------------------------|
|---------------------------------------------------------------------------|
|---------------------------------------------------------------------------|

5:36
|------------------13-------------------13------------------|
|-------11-13-13b15-15r13p11-------13b15-15r13p11-----------|
|-10-12----------------------12-12----------------12~-------|
|-----------------------------------------------------------|
|-----------------------------------------------------------|
|-----------------------------------------------------------|
5:41
|----------------------------10------------------13------------|
|------11-13-13b13b-13p11h13----------13p11-13p11---13b15r13~~-|
|-10-12-------------------------12-12--------------------------|
|--------------------------------------------------------------|
|--------------------------------------------------------------|
|--------------------------------------------------------------|

5:49
|----------13----------------------13-------------------|
|-11-13p11---13b15r11----11-11-13-----13b15-13p11-13----|
|---------------------12----------------------------12--|
|-------------------------------------------------------|
|-------------------------------------------------------|
|-------------------------------------------------------|

|-13----------------------------------13b15~~-13p10-------------------------|
|---13b15-15r13p11-13b15-15r13p11-13----------------13p11--13b15r11---------|
|--------------------------------------------------------12--------12~------|
|---------------------------------------------------------------------------|
|---------------------------------------------------------------------------|
|---------------------------------------------------------------------------|
5:58
|--------------------------------------------3---------------------------|
|-3---3h6p3--3--------------------------3-6~---6-------------------------|
|-3-5-------5-5p3-------3-5p3------3h5----------5b7-7r5p3h5-5b7r3--------|
|-----------------5p3h5-------5p3h5-------------------------------5------|
|------------------------------------------------------------------------|
|------------------------------------------------------------------------|
6:05                                                6:11
|-------------10------------------------------------13b15~~--13p10----------|
|-------11-13----13-11-13~~-11----------11---13--------------------13-11----|
|-10-12------------------------12-10h12----12---12-----------------------12-|
|---------------------------------------------------------------------------|
|---------------------------------------------------------------------------|
|---------------------------------------------------------------------------|

6:13
|----------10-13p10---------------13----------------------13-----------|
|----13b15---------13-11----13b15----13b15r11----11-13-13b---13b1511---|
|------------------------12-------------------12--------------------12-|
|----------------------------------------------------------------------|
|----------------------------------------------------------------------|
|----------------------------------------------------------------------|
   6:19                                                    6:25
|---------------13-------------------------------------------------|
|-----11-13-13b15-b15~~-13p11-------------11-----------------------|
|---12-------------------------12p10-10s12--12--12p10-12p10--------|
|----------------------------------------------------------12------|
|------------------------------------------------------------------|
|------------------------------------------------------------------|

 "Now she said it's no good you lookin for me..."
(sounds like the neck pickup)
|---------3-----------|
|-3---3-6---6-3-------|
|-3-5-----------5b7r5-|
|---------------------|
|---------------------|
|---------------------|

 "Or even hopin to get me back"
|-----------------------------------|
|-6b8~~-----------------------------|
|-------5b7~~-3b5~~-3-----------3---|
|---------------------5-5-3-3s5---5-|
|-----------------------------------|
|-----------------------------------|

"Now she said it's no good you lookin for me"
|-3-6-3------------------3-6-3------------------|
|-3-----6-3------------3-------6-3--------------|
|-----------5b7r3-5-5b-------------5b7r3-5------|
|-----------------------------------------------|
|-----------------------------------------------|
|-----------------------------------------------|

"Or baby or even hopin to get me back"
|-------3------------------------3------3h6p3---3---------3---------------|
|-----3---3~~-6-3--------------3---6b8~-------6---6p3---3---6p3---3-------|
|-5b7-------------5p3---3-5-5b------------------------5---------5---5p3---|
|---------------------5-------------------------------------------------5-|
|-------------------------------------------------------------------------|
|-------------------------------------------------------------------------|

|---------------|
|---------3-----|
|-----3-5---5~~-|
|-3s5-----------|
|---------------|
|---------------|

"Because it's all over now"
|----------------------|
|-6b8~~-3-6-3---3-6~~--|
|-------------5--------|
|----------------------|
|----------------------|
|----------------------|

"Now baby you know that you can really count on that"
(back to bridge)                                                    *slow bend
|-------------------------10-------------13-------------------------15--15-----------|
|-------11~-13----------------------13b15---15r13p11----11------------15--15---------|
|-12-12~-------12~~-12-12-----12~--------------------12----12-12~~~----------18b20~~~|
|------------------------------------------------------------------------------------|
|------------------------------------------------------------------------------------|
|------------------------------------------------------------------------------------|
Добавлено: 20.09.2015
Другие материалы по этой песне:
  • Аккорды и текст

Страница создана 20.09.2015
http://primanota.ru/fleetwood-mac/all-over-again-ive-got-a-mind-to-give-up-living-chords.htm
Привет, Гость.
Предлагаем пройти революционный курс по гитаре.
Подарок от PrimaNota.Ru, забирай!