PrimaNota.ru - самый крупный в мире бесплатный архив песенных текстов, аккордов, табулатур и нот


Fleetwood Mac - Jumping At Shadows Live - аккорды и текст, таба, видео

Регистрация Запомнить меня
Войти через:  Facebook Google Twitter Vk Yandex Mail.ru

Fleetwood Mac - Jumping At Shadows Live - аккорды и текст, таба, видео

Печатать
Просмотров: 159
Jumping At Shadows Live
Fleetwood Mac
-----------------------------------------------------------------
               Jumping at Shadows-Fleetwood Mac
-----------------------------------------------------------------

Tabbed By : Aeonoptic


Tuning: E Standard


Chord Progression throughout as follows:
G/C/G/A/C-A/C-D/G-C/G-D
 
 00:11
E|--------------------------------------------------------3---3--|
B|-15b17-15-------------------------------------------------5---5|
G|----------14-12--------12-14-14br16p12----12~-14--10b12~-------|
D|-----------------12h14-----------------14----------------------|
A|---------------------------------------------------------------|
E|---------------------------------------------------------------|

 00:22
E|-----------------------------3---------------------------------|
B|-6--3--------------------------6-------3-----------------------|
G|------5-3----------3-5b7-5-------5pb7----3--------3-5-5--5br7--|
D|----------5-5--3h5-------------------------5-------------------|
A|----------------------------------------------5/7--------------|
E|---------------------------------------------------------------|

 00:33
E|---------------------------------------------------------------|
B|---------------3-3---15~~~--15pbr17--13-12----------13-12------|
G|-3---------2/4-----------------------------12-12----------12---|
D|---5-5-5-----------------------------------------14----------12|
A|---------------------------------------------------------------|
E|---------------------------------------------------------------|
 
 00:51
E|---------------------------------------------------------------|
B|---------------------------------------------------------------|
G|-------12---------12-14b16-12h14p12----12-14br16-12----12~-14--|
D|-12/14------12-14-------------------14--------------14---------|
A|---------------------------------------------------------------|
E|---------------------------------------------------------------|

 00:58
E|----------3---------------3-----------3------------------------|
B|-----8~-----3-------4b6~----3-------3---6----------------------|
G|-7/9----------3---------------5-3/5-------5b7pb7r5-3-----------|
D|----------------5\-----------------------------------5---------|
A|-------------------------------------------------------5-------|
E|---------------------------------------------------------------|
 01:08
E|-------------------------------------------------3-------------|
B|---------------------------------------------3h5---3-5/7~------|
G|-----------------7-----3-2-----------5-3--/5-------------------|
D|----5--7p5---5-5---5-------5-2---3/5---------------------------|
A|-5/7-------7-------------------3-------------------------------|
E|---------------------------------------------------------------|
 
  Now what can you say? There isn't much to tell, but I'm going
E|---------------------------------------------------------------|
B|---------------------------------------------------------------|
G|---------------------------------------------------------------|
D|---------------------------------------------------------------|
A|---------------------------------------------------------------|
E|---------------------------------------------------------------|
 
  Downhill... and I blame myself.            I've been jumping at
E|---------------------------------------------------------------|
B|---------------------------------------------------------------|
G|---------------------------------------------------------------|
D|---------------------------------------------------------------|
A|---------------------------------------------------------------|
E|---------------------------------------------------------------|
  

 01:41
 Shadows...            Thinking about my life.
E|-------------------------------------------------5---6--3------|
B|---------------------------------------------3-5---5------3----|
G|---------10b12~~~~~~----------------------------------------3/5|
D|---------------------------------------------------------------|
A|---------------------------------------------------------------|
E|---------------------------------------------------------------|
                       
 01:52  
                             Now everybody points their hand at  
E|-----------------3---------------------------------------------|
B|-----------3~-5----6-3-----------------------------------------|
G|-3------/4-------------6-5~------------------------------------|
D|---5-5---------------------------------------------------------|
A|---------------------------------------------------------------|
E|---------------------------------------------------------------|
 
 02:04
  me...                         But I know I'm just a picture, of 
E|------6b8-6-3--------------------------------------------------|
B|--------------6-3----------------------------------------------|
G|------------------5b7-5-3--------------------------------------|
D|--------------------------5------------------------------------|
A|----------------------------5----------------------------------|
E|---------------------------------------------------------------|

 02:13
  What I should've been           I've been jumping at shadows
E|---------------------------------------------------------------|
B|---------------------------------------------------------------|
G|----------------------5-3--------------------------------------|
D|--------------------------5-5p0--------------------------------|
A|---------------------------------------------------------------|
E|---------------------------------------------------------------|
  
 02:22             
               Just thinking about my life
E|-5br7p3----------------------------------8b9-8-6---------------|
B|--------6/8~-------------------------------------6-3----------3|
G|-----------------------------------------------------5-3-3/4---|
D|---------------------------------------------------------------|
A|---------------------------------------------------------------|
E|---------------------------------------------------------------|

 02:38 
 Solo 
E|-----3-5-5br6p3-3h5p3---3---------3---6b8pb8-8br-6-----6b------|
B|-3h5------------------6---3-----5---6--------------6-8---------|
G|----------------------------5----------------------------------|
D|---------------------------------------------------------------|
A|---------------------------------------------------------------|
E|---------------------------------------------------------------|
 
 02:48
E|---------------------------------------------------------------|
B|-15br17----------15br17------15--------------------------------|
G|--------12-14b----------14b16---12/9---17(slow)b19-pbr19p15----|
D|------------------------------------------------------------17-|
A|---------------------------------------------------------------|
E|---------------------------------------------------------------|
 
 02:55
E|-------------------------------------12--15-12----12-----------|
B|----------------------------12-15b17-----------15----15--------|
G|----14-15-14----17b-15----------------------------------14b16--|
D|-17----------17--------17--------------------------------------|
A|---------------------------------------------------------------|
E|---------------------------------------------------------------|
 
 03:00
E|-----------------------------------------------12--------------|
B|---------------------------------------------------------------|
G|-14pbr16p12-------------12h14-14br16p12-14-12-----14br16p12-14-|
D|------------14~~--12h14----------------------------------------|
A|---------------------------------------------------------------|
E|---------------------------------------------------------------|
 
 03:05
E|----------------------------------------------------12\10------|
B|-----------------------------15br17~---------15br17-------12---|
G|-12b-14--------12h14-14br16~---------14br17~-------------------|
D|---------12h14-------------------------------------------------|
A|---------------------------------------------------------------|
E|---------------------------------------------------------------|
 
 03:14
E|-------------------------10---------------10-----------10-9-8--|
B|-10(br)p8-10-8---8-10/12----12\10~--10b12----8-10b-------------|
G|---------------9-------------------------------------9---------|
D|---------------------------------------------------------------|
A|---------------------------------------------------------------|
E|---------------------------------------------------------------|
 
 03:23
E|-6-8b9-8-6-----------------15-17-17b18-17-15----15-------------|
B|-----------10-8~-----15-17-------------------18----18b20~--18--|
G|-----------------9---------------------------------------------|
D|---------------------------------------------------------------|
A|---------------------------------------------------------------|
E|---------------------------------------------------------------|
 
 03:30
E|-----------------------------------------15-17----18-18b20-18--|
B|-17-15-----------------------------15-17-------17--------------|
G|-------17-15-14-12----12-12------------------------------------|
D|-------------------14-------14---------------------------------|
A|---------------------------------------------------------------|
E|---------------------------------------------------------------|
 
 03:39
               (Volume Swell)
                 V
E|-15----15------------15----------------------------------------|
B|----17----17---18b20----18-------------------------------------|
G|---------------------------17br19-15----15----------------12-14|
D|-------------------------------------17----17p15-------14------|
A|-------------------------------------------------17------------|
E|---------------------------------------------------------------| 

 03:46
E|-------------------------------------------10-9-8--------------|
B|----15br17-------15br17---------------------------10-8-8-------|
G|-----------14b16--------14pbr16-14p12--------------------9-----|
D|-14-----------------------------------14-----------------------|
A|---------------------------------------------------------------|
E|---------------------------------------------------------------|
  
 03:54      
         [Solo end]  Now God have mercy, cos I think I'm going 
E|---------------------------------------------------------------|
B|-----8---------------------------------------------------------|
G|-7/9-----------------------------------------------------------|
D|---------------------------------------------------------------|
A|---------------------------------------------------------------|
E|---------------------------------------------------------------| 
  
 04:02
  insane...               The Devil's been gettin' at me
E|----------6--3-------------------------------------------------|
B|---------------6-----------------------------------------------|
G|-----------------5br7-3---------------------------------10b12--|
D|---------------------------------------------------------------|
A|---------------------------------------------------------------|
E|---------------------------------------------------------------|
  
 04:08  
              He's got me down again             He's got me
E|---------------------------------------------------------------|
B|---------------------------------------------------------------|
G|-10pbr12p8/5---------------------------------------------------|
D|---------------------------------------------------------------|
A|-------------------------------------15\13---------------------|
E|-------------------------------------------15-15---------------|
  
 04:16
  now Jumping at shadows            Just thinking, about my life
E|---------------------------------------------------------------|
B|-----------------------10---10b11------------------------------|
G|--------------------------9------------------------------------|
D|---------------------------------------------------------------|
A|---------------------------------------------------------------|
E|---------------------------------------------------------------|
  
 04:27
E|---------0----------------------0------------------------------|
B|---10---11---6-3-------------/8-7------------------------------|
G|-9----9----------5-3-5-3-----/8-7------------------------------|
D|-------------------------5---/7-6------------------------------|
A|-----------------------------/8-7------------------------------|
E|---------------------------------------------------------------|

| /  slide up
| \  slide down
| h  hammer-on
| p  pull-off
| ~  vibrato
| +  harmonic
| x  Mute note
Добавлено: 29.07.2014
Другие материалы по этой песне:
  • Аккорды и текст

Страница создана 22.04.2012
http://primanota.ru/fleetwood-mac/jumping-at-shadows-live-chords.htm
Привет, Гость.
Предлагаем пройти революционный курс по гитаре.
Подарок от PrimaNota.Ru, забирай!