PrimaNota.ru - самый крупный в мире бесплатный архив песенных текстов, аккордов, табулатур и нот


Fleetwood Mac - Merry Go Round - текст песни, таба, бас-таба, видео

Регистрация Запомнить меня
Войти через:  Facebook Google Twitter Vk Yandex Mail.ru

Fleetwood Mac - Merry Go Round - текст песни, таба, бас-таба, видео

Печатать
Просмотров: 169
This is my first TAB, i've only done the lead guitar bits and solo, i couldn't 
make out the chords he played, 
Enjoy!!!
Standard Tuning
fb = full bend
rb = release bend
 / = slide
 h = hammer on
 p = pull off




Intro
|------8-10fb-10fb-8--------------------------------------------------------|
|-8-10---------------8/6-8-----11fb-11-10-8---------------------------------|
|------------------------------------------10-8-7----------------8----------|
|-------------------------------------------------10-10-10--8h10---10-10-10-|
|---------------------------------------------------------------------------|
|---------------------------------------------------------------------------|

|-------------------|
|-11-10-8----8-h-10-|
|---------10--------|
|-------------------|
|-------------------|
|-------------------|

0:29                             0:46
|-----10--8---------15-17------|-------------------------------------|
|-8h10--10-10---15fb-----13-13-|------13--15fb-13-11-----------13-11-|
|------------------------------|-12h14--------------12-10-9-12-------|
|------------------------------|-------------------------------------|
|------------------------------|-------------------------------------|
|------------------------------|-------------------------------------|
                 1:04
|--------------|----------------------------------11-10-8-10fb-------|
|-11-10-8------|-----8-11p8-11p8-11-8-------8----8--8----8-----8p6-8-|
|---------10-8-|-10fb----------------10-8-10-10----------------------|
|--------------|-----------------------------------------------------|
|--------------|-----------------------------------------------------|
|--------------|-----------------------------------------------------|
  1:23
|-------------------------------------------------------|
|-11-8-10--8-10----11-10-8---------------------10-13-11-|
|--------10---------------10-8------------10/12---------|
|-----------------------------10-10-10------------------|
|-------------------------------------------------------|
|-------------------------------------------------------|
  1:42
|------------15-14-13---------------------15-17------|
|------13------------16-13--15--13-13-15fb-----13-13-|
|-12/14---14--------------14--14---------------------|
|----------------------------------------------------|
|----------------------------------------------------|
|----------------------------------------------------|
 2:00
|-----8----------------------------------------------------|
|-11fb-11-8-11-8----8---------------8----------------------|
|---------------10fb-10-8-------8-10-10-8--------8---------|
|------------------------10-8-10---------10p8-----10p8-----|
|--------------------------------------------10-------10---|
|----------------------------------------------------------|
 
 2:07 SOLO
|--------------------15-17------------|----------------------|
|------13-15--13-15fb-----13-13--15fb-|---13-15--13--15fb----|
|-12/14-----14-----------------14-----|-14-----14--14----14--|
|-------------------------------------|----------------------|
|-------------------------------------|----------------------|
|-------------------------------------|----------------------|

|----------15-17------------------|---15fb-15-13-15----13-15--------|
|---13-15fb-----13-13--13-15-15fb-|-13-------------15fb-----13---11-|
|-14-----------------14-----------|---------------------------------|
|---------------------------------|---------------------------------|
|---------------------------------|---------------------------------|
|---------------------------------|---------------------------------|

|-----8-----------------------------|
|-11fb-11-8-------------------------|
|----------10fb-10-8-10p8----8-10-8-|
|------------------------10---------|
|-----------------------------------|
|-----------------------------------|

|-11fb-11fb-11-8-------------------------------|
|---------------11-8---------------------------|
|-------------------10p8--8-10-10fb-10-8-------|
|-----------------------10--------------10-8---|
|-------------------------------------------10-|
|----------------------------------------------|

|--------------------------------|--------15fb-15-13-15----15-17------------|
|--------------------------------|------13--------------15fb----13-13--15fb-|
|--------------------------------|-12/14------------------------------14----|
|------10-12--10-----13-10-12-10-|------------------------------------------|
|-10/12-----12--12---------------|------------------------------------------|
|--------------------------------|------------------------------------------|

|-----------------|--------------------------15---|
|-pre-bend-15rb---|-15fb-15-13-15p13--13-15fb--13-|
|--------------14-|-----------------14------------|
|-----------------|-------------------------------|
|-----------------|-------------------------------|
|-----------------|-------------------------------|

|--------------------------------|
|-11-10-8------------------------|
|--------10-8-7--------8-10fb----|   END SOLO
|--------------10--8-10----------|
|-----------------------------10-|
|--------------------------------|

  3:16                                            fullbend-release-pulloff
|-----------------------------------------------|---------------11-13fbrp11-|
|----10-13-11--8-11-8-10--10b11r10-8------------|----11/13-11/13------------|
|-8/9--------------8----------------10-8-7------|-8/9-----------------------|
|-----------------------------------------10-10-|---------------------------|
|-----------------------------------------------|---------------------------|
|-----------------------------------------------|---------------------------|
  3:36
|-----8----------------------------8------------|
|-11fb-11-8---------8-10-8--------8--10-8-----8-|
|----------10-8-10fb------10-8---10------8--10--|
|-----------------------------10----------10----|
|-----------------------------------------------|
|-----------------------------------------------|
  3:55
|-------8-11fb-11-8-------------|
|---8-11-----------8------------|
|-/8----------------10fb-10p8---|
|----------------------------10-|
|-------------------------------|
|-------------------------------|

   THE END

please let me know of any other songs by peter greens fleetwood mac that havn't been tabbed yet, 
if anyone knows what chords are played, please post them, i couldn't make them out

Добавлено: 24.07.2012
Другие материалы по этой песне:

Страница создана 19.06.2012
http://primanota.ru/fleetwood-mac/merry-go-round-chords.htm
Привет, Гость.
Предлагаем пройти революционный курс по гитаре.
Подарок от PrimaNota.Ru, забирай!