PrimaNota.ru - самый крупный в мире бесплатный архив песенных текстов, аккордов, табулатур и нот


Fleetwood Mac - If You Be My Baby - текст песни, таба, видео

Регистрация Запомнить меня
Войти через:  Facebook Google Twitter Vk Yandex Mail.ru

Fleetwood Mac - If You Be My Baby - текст песни, таба, видео

Печатать
Просмотров: 180
                                          Artist - Fleetwood Mac
                                         ************************
                                         Song - If You Be My Baby 
                                        **************************
                                           Album - Mr Wonderful
                                          **********************
                                           Tabbed By - Ayreon77
                                          **********************

INTRO
******
            b                                b  b
[-------10-12-10-|-10------------|-------10-12-12-|-10------------]
[-10-12----------|----12---------|-10-12----------|----12---------]
[----------------|-------10------|----------------|-------10------]
[----------------|----------12-9-|----------------|----------12-9-]
[----------------|---------------|----------------|---------------]
[----------------|---------------|--------------------------------]

               b  b    brp            b
[-------10----12-12-|-12--10----10-|-17--b--------|-----------]
[-10-12----12-------|--------12----|----17-15---s-|--br-------]
[-------------------|--------------|----------16\-|-12--10----]
[-------------------|--------------|--------------|--------12-]
[-------------------|--------------|--------------|-----------]
[-------------------|--------------|--------------|-----------]

              b             b
[--s---10----12-12-|----10-12-10----|--br------------|-------------------]
[-8\12----12-------|-12----------12-|-13-10----------|-------------------]
[------------------|----------------|-------12-10----|----10-12-10-------]
[------------------|----------------|-------------12-|-12-10-12-10-12----]
[------------------|----------------|----------------|----------------12-]
[------------------|----------------|----------------|-------------------]


--------------------------------------------------
VERSE 1
********
If you be my baby, I,ll tell you what I'll do
give you so much lovin', you just gotta love me too
If you be my baby
            b
[-------10-12----]
[-10-12-------12-]
[----------------]
[----------------]
[----------------]
[----------------]

If you be my baby
   brp
[-12--10----10-12-]
[--------12-------]
[-----------------]
[-----------------]
[-----------------]
[-----------------]

Now If you be my baby

[-------10-]
[-10-12----]
[----------]
[----------]
[----------]
[----------]

I know i can make you satisfied

[----------10--------------------------------]
[---h---10----13--brp--------h---12-10-------]
[-10-11----------12--10----10-11-12-10-------]
[-----------------------12-------------12----]
[-----------------------------------------12-]
[--------------------------------------------]


--------------------------------------------------
VERSE 2
********
Now listen to me baby, what I'm talkin' 'bout
Ahh you got something woman, make a dumb man jump and shout
If you be my baby
            b  b
[----10----12-12-]
[-12----12-------]
[----------------]
[----------------]
[----------------]
[----------------]

If you be my baby

[--b---p---------------|----------]
[-13-13-10---p---------|------p---]
[----------12-10-------|-12-12-10-]
[----------------12-12-|----------]
[----------------------|----------]
[----------------------|----------]

If you be my baby

[-------10-]
[-10-12----]
[----------]
[----------]
[----------]
[----------]

I know i can make you satisfied

[-------------------]
[-------------------]
[----10-12-10-------]
[-12-10-12-10-12----]
[----------------12-]
[-------------------]


--------------------------------------------------
SOLO
*****       b r b                                b  b    rb          UB
[-------10-12-----|-10------------|-------10----12-12-|-13-10--b-r-|----]
[-10-12-----------|----12---------|-10-12----12-------|-------13---|-10-]
[-----------------|-------10------|-------------------|------------|-12-]
[-----------------|----------12-9-|-------------------|------------|----]
[-----------------|---------------|-------------------|------------|----]
[-----------------|---------------|-------------------|------------|----]


[----------------|-----------------|----------------------|--b--r-------10-]
[----------------|--brp------------|--b-------------------|-13----10-13----]
[-12-10----10-12-|-12--10----10-12-|-12-12-10----10---p---|----------------]
[-------12-------|--------12-------|----------12----12-10-|----------------]
[----------------|-----------------|----------------------|----------------]
[----------------|-----------------|----------------------|----------------]


[----------12-14-12----------------|----------15-17--b----|--b-15-17----]
[-12-15-12----------15-13-12----12-|----15-18-------17-15-|-17-------15-]
[----------------------------14----|-16-------------------|-------------]
[----------------------------------|----------------------|-------------]
[----------------------------------|----------------------|-------------]
[----------------------------------|----------------------|-------------]


[--------------------------]
[-12-10-12----------s---10-]
[-12-10-12-10-9----9\11----]
[---------------12---------]
[--------------------------]
[--------------------------]


--------------------------------------------------
VERSE 3
********
I'm Lookin' for a woman, that ain't never done no wrong
She cook my meals in the day time, love me all night long
If you be my baby

[--b---------------]
[-13--13--12-10----]
[---------------10-]
[------------------]
[------------------]
[------------------]

Yes If you be my baby

[--b----p------------------|----------10----]
[-13--13-10---p--------h---|---h---10----13-]
[-----------12-10----10-12-|-10-11----------]
[-----------------12-------|----------------]
[--------------------------|----------------]
[--------------------------|----------------]

Now If you be my baby

[-------10-13-]
[-10-12-------]
[-------------]
[-------------]
[-------------]
[-------------]

I know i can make you satisfied

[-------10-----------------------|--------------]
[--b-10----13-10--brp------------|--brp---------]
[-12-------------12--10----10----|-12--10-------]
[-----------------------12----12-|--------12----]
[--------------------------------|-----------12-]
[--------------------------------|--------------]


--------------------------------------------------
SOLO
*****               b  b         b  b    rbrp         b r      p
[----10-------10-|-15-15-|----|-15-15-|-15---13----|-15---17-15-13-------]
[-13----10-13----|-------|-15-|-------|---------15-|---------------15-15-]
[----------------|-------|----|-------|------------|---------------------]
[----------------|-------|----|-------|------------|---------------------]
[----------------|-------|----|-------|------------|---------------------]
[----------------|-------|----|-------|------------|---------------------]
                                                   Start fading out
   b r      p                                   b
[-15---17-15-13-------|-----------------b--b-|-17-17--b--------]
[---------------15-15-|---s---15-17----17-17-|-------17-15---s-]
[---------------------|-14\16-------16-------|-------------16\-]
[---------------------|----------------------|-----------------]
[---------------------|----------------------|-----------------]
[---------------------|----------------------|-----------------]


[--------------b----|-----b----------]
[----15-17----17-17-|----17-15-17-15-]
[-16-------16-------|-16-------------]
[-------------------|----------------]
[-------------------|----------------]
[-------------------|----------------]


A cool Fleetwood Mac Tune. Enjoy..........
Добавлено: 05.11.2013
Другие материалы по этой песне:
  • Аккорды и текст

Страница создана 13.04.2012
http://primanota.ru/fleetwood-mac/if-you-be-my-baby-chords.htm
Привет, Гость.
Предлагаем пройти революционный курс по гитаре.
Подарок от PrimaNota.Ru, забирай!