PrimaNota.ru - самый крупный в мире бесплатный архив песенных текстов, аккордов, табулатур и нот


Fleetwood Mac - Like It This Way - текст песни, таба, видео

Регистрация Запомнить меня
Войти через:  Facebook Google Twitter Vk Yandex Mail.ru

Fleetwood Mac - Like It This Way - текст песни, таба, видео

Печатать
Просмотров: 144
-----------------------------------------------------------------
                   Like It This Way-Fleetwood Mac
-----------------------------------------------------------------

Tabbed By : 
e-mail:

Tuning: E Standard

PLEASE NOTE: Where guitar 1 + 2 are shown they are played simultaneously,
and have been notated as accurately as possible. Bar lines may be a note out.


 Guitar 1
  G7
E|--------------|-------------|--------------|-------------------|
B|-6b8~-6-3-----|-------------|-6b8~-6-3-----|-------------------|
G|----------3---|-------------|----------3---|-------------------|
D|------------5-|-------------|------------5-|-------------------|
A|--------------|-------------|--------------|-------------------|
E|--------------|-------------|--------------|-------------------|

 Guitar 2
E|--------------|-------------|--------------|-------------------|
B|--------------|6b8~-6-3-----|--------------|--5b7~-6-3---------|
G|--------------|---------3---|--------------|-----------3-------|
D|--------------|-----------5-|--------------|-------------5-----|
A|--------------|-------------|--------------|-------------------|
E|--------------|-------------|--------------|-------------------|

Guitar 1
 C7
E|-----------------------|-------------------------|
B|-6b8~-6-3------------3-|-------------------------|
G|----------5br7p3-5b7---|-------------------------|
D|-----------------------|-------------------------|
A|-----------------------|-------------------------|
E|-----------------------|-------------------------|

Guitar 2
E|-----------------------|------3------------------|
B|-----------------------|-6b8~---6-3------------3-|
G|-----------------------|------------5br7p3-5b7---|
D|-----------------------|-------------------------|
A|-----------------------|-------------------------|
E|-----------------------|-------------------------|

Guitar 1
  G7                                   D7                    C7
E|-----------------|------------------|-----6--------------|------------------|
B|-----3-----------|------------------|-6b8---6pbr8-3------|------------------|
G|-5b7---5p3-------|------------------|---------------5b7~-|------------------|
D|-----------5-5---|------------------|--------------------|------------------|
A|-----------------|------------------|--------------------|------------------|
E|-----------------|------------------|--------------------|------------------|

Guitar 2
E|-----------------|------------------|--------------------|-----6------------|
B|-----------------|-----3------------|--------------------|6b8---6pbr8-3-----|
G|-----------------|-5b7---5br7p3-----|--------------------|--------------5b7~|
D|-----------------|--------------5-5-|--------------------|------------------|
A|-----------------|------------------|--------------------|------------------|
E|-----------------|------------------|--------------------|------------------|
   
Guitar 1
  G7                                  G7
E|-------------------|---------------|-----X-------|-------------|
B|6b8~-6-3-----------|---------------|-6b8---3-6b8~|-------------|
G|---------3---------|---------------|-------------|-------------|
D|-----------5-------|---------------|-------------|-------------|
A|-------------------|---------------|-------------|-------------|
E|-------------------|---------------|-------------|-------------|

Guitar 2
E|------3------------|---------------|-------------|-----3-------|
B|--------3----------|-------3-6-6b8~|-------------|6b8---3-6-6b8|
G|----------3-5-3-5p3|---3-5---------|-------------|-------------|
D|-------------------|-5-------------|-------------|-------------|
A|-------------------|---------------|-------------|-------------|
E|-------------------|---------------|-------------|-------------|
   
Guitar 1
                                 C7
E|-------------|----------------|--------------|---------------|
B|6b8-6-3------|----------------|-6b8-6-3------|---------------|
G|--------5b7~-|----------------|---------3br5~|---------------|
D|-------------|----------------|--------------|---------------|
A|-------------|----------------|--------------|---------------|
E|-------------|----------------|--------------|---------------|

Guitar 2
  G7
E|-------------|-----------------|--------------|--------------|
B|-------------|-6b8-6-3---------|--------------|6b8-6-3-------|
G|-------------|---------3-5b7~~~|--------------|--------5-3~--|
D|-------------|-----------------|--------------|--------------|
A|-------------|-----------------|--------------|--------------|
E|-------------|-----------------|--------------|--------------|
   
Guitar 1
 G7                          D7          C7           G7
E|------------|-------------|-6b8-3~~~-|------------|6b8~-3---|-------------|
B|------------|-------------|----------|------------|---------|-------------|
G|3pbr5~~~----|-------------|----------|------------|---------|-------------|
D|------------|-------------|----------|------------|---------|-------------|
A|------------|-------------|----------|------------|---------|-------------|
E|------------|-------------|----------|------------|---------|-------------|

Guitar 2
E|------------|-------------|----------|-6-8b-9-8-6~|8-----8-9|8p6-----6----|
B|------------|-------------|----------|------------|---------|-----8-8--8-8|
G|------------|3br4---------|----------|------------|---------|-------------|
D|------------|-----5---3-5-|----------|------------|---------|-------------|
A|------------|-------5-----|----------|------------|---------|-------------|
E|------------|-------------|----------|------------|---------|-------------|
   
Guitar 1
  G7
E|8b10-8b10-8b10-8b10~|--------------|-8br10p6-----|---------------------|
B|--------------------|--------------|---------8-8-|---------------------|
G|--------------------|--------------|-------------|---------------------|
D|--------------------|--------------|-------------|---------------------|
A|--------------------|--------------|-------------|---------------------|
E|--------------------|--------------|-------------|---------------------|

Guitar 2
E|--------------------|8b10-6--8-8-6-|-------------|---------------------|
B|--------------------|--------------|-------------|-------15------------|
G|--------------------|--------------|-------------|-17b19----17p15------|
D|--------------------|--------------|-------------|----------------17-17|
A|--------------------|--------------|-------------|---------------------|
E|--------------------|--------------|-------------|---------------------|
   
Guitar 1
  C7                                               G7
E|-------------------|---------------------------|------------------------|
B|-18b20-18b20-18/20-|---------------18b20-18-15-|------------------------|
G|-------------------|---------------------------|17b19~~-----------------|
D|-------------------|---------------------------|------------------------|
A|-------------------|---------------------------|------------------------|
E|-------------------|---------------------------|------------------------|

Guitar 2
E|-------------------|---------------------------|------------------------|
B|-------------------|-18b20-18-15---------------|---15-------------------|
G|-------------------|-------------17-17pb19r17~~|------17-15-------15-17-|
D|-------------------|---------------------------|------------17-15-------|
A|-------------------|---------------------------|------------------------|
E|-------------------|---------------------------|------------------------|
   
Guitar 1
              D7                           C7        G7
E|-3--------|-----------------------------|-3-------|---------------|------------|
B|---3------|-----------------------------|---3-----|---------------|------------|
G|-----5b7~~|-----------------------------|-----5~~-|---------------|------------|
D|----------|-----------------------------|---------|---------------|------------|
A|----------|-----------------------------|---------|---------------|------------|
E|----------|-----------------------------|---------|---------------|------------|

Guitar 2
E|----------|15-------------------------15|---------|-15------------|------------|
B|----------|---18-15---------------------|---------|----15-18------|------------|
G|----------|---------18-17-15----17b19---|---------|----------15---|------------|
D|----------|------------------17---------|---------|-------------17|15----15-17-|
A|----------|-----------------------------|---------|---------------|---17-------|
E|----------|-----------------------------|---------|---------------|------------|
   
Enter vocals
Guitar 2 repeats this pattern throughout vocal sections
  On G7      On C7     On D7
E|---------|---------|---------|
B|---------|---------|---------|
G|---------|-----3-5-|-----5-7-|
D|-----3-5-|---5-----|---7-----|
A|---5-----|-3-------|-5-------|
E|-3-------|---------|---------|

Guitar 1
  G7
  Better love me baby                Love me all the time
E|--------------------|-------------|--------------------|------------|
B|--------------------|-6b8-6-3-----|--------------------|-6b8-6-3----|
G|--------------------|---------3---|--------------------|---------3--|
D|--------------------|-----------5-|--------------------|-----------5|
A|--------------------|-------------|--------------------|------------|
E|--------------------|-------------|--------------------|------------|

Guitar 1
  C7                              G7
  Better love me babyyyyyyy       And let me know you're mine
E|-------------------|-----------|----------------|-----------------|
B|-------------------|-----------|----------------|-------3---------|
G|-------------------|-5-3-5b7~~-|----------------|-----------------|
D|-------------------|-----------|----------------|-----------------|
A|-------------------|-----------|----------------|-----------------|
E|-------------------|-----------|----------------|-----------------|
   

Guitar 1
  D7                  C7            G7
  Don't care what you sayyyy   You're gonna like it this way
E|-------------------|--------3---|-------------------------|-------|
B|-------------------|--------3---|-------------------------|-------|
G|-------------------|-5b7~~------|-------------------------|-------|
D|-------------------|------------|-------------------------|-------|
A|-------------------|------------|-------------------------|-------|
E|-------------------|------------|-------------------------|-------|
   
Guitar 1
  G7
  Give me all your love      Because I know you need 
E|-----------------|--------|------------------------|--------------|
B|-----------------|-6b8~~~-|------------------------|--------------|
G|-----------------|--------|------------------------|--------------|
D|-----------------|--------|------------------------|--------------|
A|-----------------|--------|------------------------|--------------|
E|-----------------|--------|------------------------|--------------|

Guitar 2
  C7                            G7
  Give me all your love          Because I know you need 
E|----------------|------------|-------------------------|---------|
B|----------------|------------|-------------------------|---------|
G|----------------|--5-3-5b7~~-|-------------------------|---------|
D|----------------|------------|-------------------------|---------|
A|----------------|------------|-------------------------|---------|
E|----------------|------------|-------------------------|---------|
   
Guitar 1
  D7               C7            G7
  A little bit of that holdin'   A little bit of that squeeze
E|---------------|--------------|-------------------------|--------|
B|---------------|--------------|-------------------------|--------|
G|---------------|--------------|-------------------------|--------|
D|---------------|--------------|-------------------------|--------|
A|---------------|--------------|-------------------------|--------|
E|---------------|--------------|-------------------------|--------|
   
Guitar 1
  G7                                            C7
E|-6b8-6-3~|-----------|-6b8-6-3~|------------|-6b8-6-3~-|--------------|
B|---------|-----------|---------|------------|----------|--------------|
G|---------|-----------|---------|------------|----------|--------------|
D|---------|-----------|---------|------------|----------|--------------|
A|---------|-----------|---------|------------|----------|--------------|
E|---------|-----------|---------|------------|----------|--------------|

Guitar 2
E|---------|-6b8-3-3-3~|---------|-8b10-8-6---|----------|-8-10-8-6-----|
B|---------|-----------|---------|----------8-|----------|----------8-8-|
G|---------|-----------|---------|------------|----------|--------------|
D|---------|-----------|---------|------------|----------|--------------|
A|---------|-----------|---------|------------|----------|--------------|
E|---------|-----------|---------|------------|----------|--------------|
   
Guitar 1
  G7                            D7            C7          G7
E|--------6b8-6-3-|-----------|------6-8-10-|------------|-10---6-6--|
B|----------------|-----------|----8--------|------------|----8-----8|
G|----------------|-----------|-------------|------------|-----------|
D|----------------|-----------|-------------|------------|-----------|
A|----------------|-----------|-------------|------------|-----------|
E|----------------|-----------|-------------|------------|-----------|

Guitar 2
E|----------------|-----------|-------------|3-----------|-----------|
B|-6-3------------|-----------|-------------|3-3---------|-----------|
G|-----5-3--------|--3---3-5/7|-5b7-5-3-----|----5-3-----|-----------|
D|---------5-3-5-5|3---5------|---------5---|--------5-3-|-----------|
A|----------------|-----------|-----------5-|------------|--5-4-3-3/5|
E|----------------|-----------|-------------|------------|-----------|
   
Guitar 1
                      G7  
E|-------------------|-----------------------|------------------|----------------|
B|-15----------------|-15--------------------|-15---------------|----------------|
G|----12-15b-15b-12~-|----12-15b-15b-12~-----|----12-15b-15b-15b|-15b-15b-15b17~~|
D|-------------------|-----------------------|------------------|----------------|
A|-------------------|-----------------------|------------------|----------------|
E|-------------------|-----------------------|------------------|----------------|

Guitar 2
E|-------------------|-----------3-----------|------------------|----------------|
B|-------------------|-------------3-6-3-----|--------------6-3-|----------------|
G|-------------------|-------------------3-5~|------------------|6-5-4-----------|
D|3---5-3---------3/5|-----------------------|------------------|------5-3-5-----|
A|--5-----5-3--------|-----------------------|------------------|----------------|
E|------------6-3----|-----------------------|------------------|----------------|
   
Guitar 1
  D7                        G7                               D7         C7           G7
E|------------|------------|---------------|----------------|----------|------------|------------------|
B|------------|------------|18b20-18-------|----------------|----------|------------|------------------|
G|17b19~~-----|------------|---------15----|17----15~-------|15br17-12~|------------|------12-15-15b17~|
D|------------|------------|------------17-|---17-----------|----------|------------|12-15-------------|
A|------------|------------|---------------|----------------|----------|------------|------------------|
E|------------|------------|---------------|----------------|----------|------------|------------------|

Guitar 2
E|------------|------------|----------------|----------------|---------|------------|------------------|
B|------------|------------|----------------|----------------|---------|------------|------------------|
G|----------15|----17-15-17|--------17b19-17|-17p15----15-17~|---------|----15-17-17|------------------|
D|-------17---|-17---------|----------------|--------17------|---------|-17---------|---------15-17-15-|
A|------------|------------|----------------|----------------|---------|------------|------17----------|
E|------------|------------|----------------|----------------|---------|------------|------------------|
   
Guitar 1
E|-------------|
B|-------------|
G|-------------|
D|-------------|
A|-------------|
E|-------------|

Guitar 2
E|-------------|
B|-------------|
G|-------------|
D|-------------|
A|17-15\13------|
E|---------15-15|

Guitar 1
  G7
E|----------------------|----------------------|---------------|---------------------|
B|----------------------|----------------------|---------------|---------------------|
G|15b17-pb17-pb17-pb17~~|----------------------|15b17-15-12----|---------------------|
D|----------------------|----------------------|------------12-|---------------------|
A|----------------------|----------------------|---------------|13-------------------|
E|----------------------|----------------------|---------------|---15----------------|
   

Guitar 1
E|----------------------|----------------------|---------------|---------------------|
B|----------------------|18b20-18b20-18-18b20~~|---------------|18b20-18-15----------|
G|----------------------|----------------------|---------------|------------15-------|
D|----------------------|----------------------|---------------|---------------15----|
A|----------------------|----------------------|---------------|------------------17-|
E|----------------------|----------------------|---------------|---------------------|
   

Guitar 1
  C7                                       G7                 D7              G7 
E|------------|---------------------------|--------|---------|---------------|------|
B|------------|---------------------------|-5b7-5--|--5b7-5-3|-5b7-5-3-------|------|
G|---3-5-3-5b7|---------------------------|-5b7-5-3|--5b7-5-3|-5b7-5-3-------|------|
D|-5----------|---------------------------|--------|---------|---------------|5-5-5-|
A|------------|---------------------------|--------|---------|---------------|------|
E|------------|---------------------------|--------|---------|---------------|------|
   

Guitar 2
E|------------|---------------------------|--------|---------|---------------|------|
B|------------|---------------------------|---18b19|-18-15---|---------------|------|
G|------------|17b19-17-15-17p15-------15-|--------|-------15|-15-17-15------|------|
D|------------|------------------17-17----|--------|---------|----------17-17|-15-15|
A|------------|---------------------------|--------|---------|---------------|------|
E|------------|---------------------------|--------|---------|---------------|------|
 Guitar 1   
E|---------------------------------|
B|---------------------------------|
G|3-3------------------------------|
D|----5p3-5\-----------------------|
A|---------------------------------|
E|---------------------------------|

Guitar 2
E|---------------------------------|
B|---------------------------------|
G|---------------------------------|
D|----15-----15-17-15--------------|
A|-17-----17----------17-15\13-----|
E|-----------------------------15\-|


Guitar 1
  G7                                                       C7                            G7
E|-----------------|-------------|--------|--------------x|---------------|-------------|------|
B|-----------------|-------------|--------|----x---------x|---------------|-------------|18b20~|
G|-----------------|---------15b-|-15b-15b|----x--17b19~--|-17pbr19p15----|-------------|------|
D|17~-17~-17~-17~~-|-17~-17~-----|--------|17~------------|------------17~|-------------|------|
A|-----------------|-------------|--------|---------------|---------------|-------------|------|
E|-----------------|-------------|--------|---------------|---------------|-------------|------|
   

Guitar 2
E|-----------------|-----3---3-3-|--------|-----------3b--|-------------3-|-------------|------|
B|-----------------|-------6-----|6----6-6|-6-6---6-6-----|-------------3-|6-3-6-3------|------|
G|-----------------|-------------|--------|---------------|---------------|--------5-3h5|------|
D|-----------------|-------------|--------|---------------|---------------|-------------|------|
A|-----------------|-------------|--------|---------------|---------------|-------------|------|
E|-----------------|-------------|--------|---------------|---------------|-------------|------|
   
Guitar 1
E|---------15----15---------|
B|-18----18----15-----------|
G|----------------17br19p15~|
D|--------------------------|
A|--------------------------|
E|--------------------------|

Guitar 2
E|--------------------------|
B|--------------------------|
G|-5b7~-5-3-5-br7p3---3-----|
D|------------------5---5---|
A|------------------------5-|
E|--------------------------|

Guitar 1
  D7       C7          G7
E|--------|-----------|------------|-----------|
B|--------|-----------|------------|-----------|
G|--------|-----------|15b---------|-----------|
D|--------|-----------|----17-17~--|-----------|
A|17~-----|-----------|------------|-----------|
E|--------|-----------|------------|-----------|
   

Guitar 2
E|--------|-----------|------------|-----------|
B|--------|-----------|------------|-----------|
G|--------|-----------|------------|---3---3---|
D|--3--3--|-3-3p0-3/5-|------------|/5---5---5~|
A|5------5|-----------|5\3-3/5\3\1-|-----------|
E|--------|-----------|------------|-----------|
   

(guitar 2 plays the vocal pattern)

Guitar 1
 Give me all your love, cos I know you need   Give me all your loo-oovve, because I know you need
  G7                                           C7                            G7
E|----------|-----------|----------|------------|----------------|----------|----------|----------|
B|----------|-----------|----------|------------|----------------|----------|----------|----------|
G|----------|-----------|----------|------------|----------------|5p3-5b7~~~|----------|----------|
D|----------|-----------|----------|------------|----------------|----------|----------|----------|
A|----------|-----------|----------|------------|----------------|----------|----------|----------|
E|----------|-----------|----------|------------|----------------|----------|----------|----------|

D7             C7   
A little bit of that holdin'
G7
A little bit of that squeeze

Guitar 1
  G7                               C7               G7              D7           C7  G7
E|------------|-3-|-----------|---|------------|-3-|-----------|---|------------|-3-|----------|----|
B|------------|---|6pb8-6pbr8-|3~-|------------|---|6pb8-6pbr8-|3~-|------------|---|6pb8-6pbr8|-3~-|
G|5pb7-5pbr7b7|---|-----------|---|5pb7-5pbr7b7|---|-----------|---|5pb7-5pbr7b7|---|----------|----|
D|------------|---|-----------|---|------------|---|-----------|---|------------|---|----------|----|
A|------------|---|-----------|---|------------|---|-----------|---|------------|---|----------|----|
E|------------|---|-----------|---|------------|---|-----------|---|------------|---|----------|----|
   
Guitar 
  G7                              C7              G7        D7    C7 G7
E|---------|-----|----------|----|----------|----|------|--|-----|--|------------|--------|
B|---------|-----|----------|----|----------|----|------|--|-----|--|------------|--------|
G|5b7-5pbr7|-5-3~|5b7-5pbr7-|5-3~|5b7-5pbr7-|5-3~|5pbr7~|~-|5pbr7|~~|5pbr7-------|------3~|
D|---------|-----|----------|----|----------|----|------|--|-----|--|------5-5-5-|--3-5---|
A|---------|-----|----------|----|----------|----|------|--|-----|--|------------|5-------|
E|---------|-----|----------|----|----------|----|------|--|-----|--|------------|--------|
  
Guitar 1
  G7                             C7             G7              D7    C7  G7
E|----------|---|------------|--|-----------|--|------------|--|-----|-3-|6-|--3-|
B|----------|---|------------|--|-----------|--|------------|--|-----|---|3-|--3-|
G|------3b4~|---|------3-3b4~|--|-------3b4~|--|------3-3b4~|--|5b7~~|---|--|----|
D|--3-5-----|---|--3-5-------|--|---3-5-----|--|--3-5-------|--|-----|---|--|----|
A|5---------|---|5-----------|--|-5---------|--|5-----------|--|-----|---|--|----|
E|----------|---|------------|--|-----------|--|------------|--|-----|---|--|----|
   
Guitar 1
 G7                                                  
E|18b20-18b20-18b20-18b20~|-------------------------|18b20-18b20-18b20-18b20-15----|
B|------------------------|-------------------------|---------------------------15-|
G|------------------------|-------------------------|------------------------------|
D|------------------------|-------------------------|------------------------------|
A|------------------------|-------------------------|------------------------------|
E|------------------------|-------------------------|------------------------------|
   
Guitar 2
E|------------------------|------15-------15--------|-------------------------15---|
B|------------------------|18b20----18b20----18b20~-|-------------------18b20----18|
G|------------------------|-------------------------|------------------------------|
D|------------------------|-------------------------|------------------------------|
A|------------------------|-------------------------|------------------------------|
E|------------------------|-------------------------|------------------------------|
   
Guitar 1
                        C7                                                   G7
E|---------------------|------15-------15-------|---------------------------|15-----------------------------|
B|---------------------|18b20----18b20----18b20~|---------------------------|---18-15-----------------------|
G|---------------------|------------------------|---------------------------|---------17-17br19p15----------|
D|---------------------|------------------------|---------------------------|----------------------17~------|
A|---------------------|------------------------|---------------------------|-------------------------------|
E|---------------------|------------------------|---------------------------|-------------------------------|
   
Guitar 2
E|---------------------|------------------------|---------------------------|---------15----15--------------|
B|15-------------------|------------------------|18b20-18b20-18-18b20-18b20~|18b20-18----15----------15-----|
G|---17-15-17-15-17b19~|------------------------|---------------------------|------------------15h17----15~-|
D|---------------------|------------------------|---------------------------|-------------------------------|
A|---------------------|------------------------|---------------------------|-------------------------------|
E|---------------------|------------------------|---------------------------|-------------------------------|
   
Guitar 1
  D7    C7                  G7                                  G7
E|15--|--18----------------|18br20-15-------|------------------|------15-15~~|-------------|
B|15--|--18----------------|----------18b20~|------------------|15-18--------|-------------|
G|----|--------------------|----------------|------------------|-------------|-------------|
D|----|--------------------|----------------|------------------|-------------|-------------|
A|----|--------------------|----------------|------------------|-------------|-------------|
E|----|--------------------|----------------|------------------|-------------|-------------|

Guitar 2
E|----|18b20-18-15-------15|------15--------|15-------------15-|-------------|------15-18~~|
B|----|------------17-15---|18b20----18b20--|---15----15-18----|-------------|15-18--------|
G|----|--------------------|----------------|------17----------|-------------|-------------|
D|----|--------------------|----------------|------------------|-------------|-------------|
A|----|--------------------|----------------|------------------|-------------|-------------|
E|----|--------------------|----------------|------------------|-------------|-------------|
   
Guitar 1                                 
                                         C7                                          D7
E|-------------------|------------------|18b20-18-15-18-18br20----|------15---------|-------------|
B|18b20-18-15--------|------------------|-------------------------|15-18----15------|-------------|
G|------------17b19~~|------------------|-------------------------|------------17-15|-------------|
D|-------------------|------------------|-------------------------|-----------------|-------------|
A|-------------------|------------------|-------------------------|-----------------|-------------|
E|-------------------|------------------|-------------------------|-----------------|-------------|
   
Guitar 2 
E|-------------------|18b20-18-15-------|-------------15----------|------15---------|-------------|
B|-------------------|------------18b20~|-------18b20----15--15-18|18b20----18-15---|-------------|
G|-------------------|------------------|-------------------------|---------------17|-17b19-15----|
D|-------------------|------------------|-------------------------|-----------------|----------17~|
A|-------------------|------------------|-------------------------|-----------------|-------------|
E|-------------------|------------------|-------------------------|-----------------|-------------|
   
Guitar 1 
  C7                    G7                                  G7
E|---------------------|--------------|--------------------|------------|-----------|-----------|
B|---------------------|--------------|--------------------|6b8-6-3-----|-----------|6b8-6-3----|
G|17br19-15-15-15------|---15b--------|--------------------|--------3---|-----------|--------3--|
D|---------------------|17------17-17-|--------------------|----------5-|-----------|----------5|
A|---------------------|--------------|--------------------|------------|-----------|-----------|
E|---------------------|--------------|--------------------|------------|-----------|-----------|
   
Guitar 2 
E|---------------------|--------------|--------------------|------------|-----------|-----------|
B|---------------------|--------------|--------------------|------------|6b8-6-3----|-----------|
G|----17b19-17-15------|--------------|--17-17-17-17-------|------------|--------3--|-----------|
D|----------------17-17|--------------|15------------15-15~|------------|----------5|-----------|
A|---------------------|--------------|--------------------|------------|-----------|-----------|
E|---------------------|--------------|--------------------|------------|-----------|-----------|
   
Guitar 1
                D7                                 G7
E|------------|-----------------|-----------------|-----------------|----------------|
B|------------|----3-----3------|-----------------|----3-----3------|----------------|
G|------------|5b7---5b7---5b7~~|-----------------|5b7---5b7---5b7~~|----------------|
D|------------|-----------------|-----------------|-----------------|----------------|
A|------------|-----------------|-----------------|-----------------|----------------|
E|------------|-----------------|-----------------|-----------------|----------------|
   
Guitar 2
E|------------|-----------------|-----------------|-----------------|----------------|
B|6b8-6-3-----|-----------------|----3-----3------|-----------------|----3-----------|
G|--------3---|-----------------|5b7---5b7---5b7~~|-----------------|5b7---5-3-------|
D|----------5-|-----------------|-----------------|-----------------|----------5-3-5-|
A|------------|-----------------|-----------------|-----------------|----------------|
E|------------|-----------------|-----------------|-----------------|----------------|
   
Guitar 1
  D7               C7                       G7
E|----3-----------|------3----------------|-------------------|---------|
B|6b8---6p3-------|--6b8---6br8p3-----3---|-------------------|11~~-----|
G|----------3-5b7~|---------------5b7---3~|-------------------|10~~-----|
D|----------------|-----------------------|-------------------|-9~~-----|
A|----------------|-----------------------|-------------------|10~~-----|
E|----------------|-----------------------|-------------------|---------|
   
Guitar 2
E|----------------|----3------------------|-------------------|---------|
B|----------------|6b8---6-3---------3----|6b8-6-3---3--------|11~~-----|
G|----------------|----------5-3-5b7------|--------5---3------|10~~-----|
D|----------------|-----------------------|--------------5-3-5|-9~~-----|
A|----------------|-----------------------|-------------------|10~~-----|
E|----------------|-----------------------|-------------------|---------|
 

      
| /  slide up
| \  slide down
| h  hammer-on
| p  pull-off
| ~  vibrato
| +  harmonic
| x  Mute note
Добавлено: 20.09.2015
Другие материалы по этой песне:
  • Аккорды и текст

Страница создана 07.04.2012
http://primanota.ru/fleetwood-mac/like-it-this-way-chords.htm
Привет, Гость.
Предлагаем пройти революционный курс по гитаре.
Подарок от PrimaNota.Ru, забирай!