PrimaNota.ru - самый крупный в мире бесплатный архив песенных текстов, аккордов, табулатур и нот


Fleetwood Mac - Dont Let Me Down Again - аккорды и текст, таба, видео

Регистрация Запомнить меня
Войти через:  Facebook Google Twitter Vk Yandex Mail.ru

Fleetwood Mac - Dont Let Me Down Again - аккорды и текст, таба, видео

Печатать
Просмотров: 140
Dont Let Me Down Again
Fleetwood Mac
Tuning=EADGBE
 
Main riff: (just remember that the open low As are the bass note)
e|-------------|-------------|---------------------|
B|-2-0---------|-2-0---------|-2-0---------0-------|
G|-----2---2---|-----2---2---|-----2---2-----2-----|
D|-------------|-------------|---------------------|
A|-0-0---0---0-|-0-0---0---0-|-0-0---0---0-0-0-0-0-|
E|-------------|-------------|---------------------|

Chorus riff:
e|-------------------------------------------|
B|-------------------1b-------------------1b-|
G|---2---2---2---2--------2---2---2---2------| Back to
D|---0---0---0---0--------0---0---0---0------| main riff
A|-------------------------------------------|
E|-3---3---3---3---3----2---2---2---2---2----|

Lyrics:
Baby, baby don't treat me so bad
I'm the best boy that you ever had
You wanna leave now and find a new start
It's gonna kill me if you break my heart

Ooh, once you let me down again
Ooh, you're just bound to see the end

Baby, baby don't treat me this way
I'm gonna make it again someday
There's just one thing I'd like you to know
I got no more to lose if you go

Ooh, once you let me down again
Ooh, you're just bound to see the end
Добавлено: 20.09.2013
Другие материалы по этой песне:
  • Аккорды и текст

Страница создана 20.03.2012
http://primanota.ru/fleetwood-mac/dont-let-me-down-again-chords.htm
Привет, Гость.
Предлагаем пройти революционный курс по гитаре.
Подарок от PrimaNota.Ru, забирай!