PrimaNota.ru - самый крупный в мире бесплатный архив песенных текстов, аккордов, табулатур и нот


Fleetwood Mac - Dust - текст песни, таба, видео

Регистрация Запомнить меня
Войти через:  Facebook Google Twitter Vk Yandex Mail.ru

Fleetwood Mac - Dust - текст песни, таба, видео

Печатать
Просмотров: 158
Уроки эстрадного вокала в Санкт-Петербурге
Dust - Fleetwood Mac
Written by Danny Kirwan

Intro arpeggio (4 times):

 Mod.Bb7    C       G
[-------------------------]
[---3-------1-------0-----]
[- 0-------0-------0-0----]
[-3-------2-------0---0---]
[1-------3-------2-----2--]
[---------------3---------]

Em                             C
 When the white flame in us is gone
     G                D     
 And we that lost the world's delight
C
 Stiffen in darkness.
G
 Left alone,
Bm                 Am
 To crumble in our separate light
D                        D7
 When your swift hair is quiet in death
C                                Bb
 And through the lips corruption thrust to
           C           G
 still the labor of my breath.
Bm (7th fret)      Am (5th fret)
 When we are dust, when we are dust
F#m                Em
 When we are dust, when we are dust

Lead:
Em             C         G D C          
[---------------------------------------
[12-s-8----------------------8-8--------
[12-s-9-9-s-4-s9--9----9-7-7------------
[-------9-s-5-s10-10-10--9-7----9-7h9p7-
[---------------------------------------
[---------------------------------------
 G          Bm                  Am
---------------s12-10--------------------------]
--8-7h8p7--s12------10-10h12p10-10-------------]
---------7------------------------11h12p11-----]
-----------9-------------------------------9-12]
10---------------------------------------------]
-----------------------------------------------]

D                        D7
 When your swift hair is quiet in death
C                                Bb
 And through the lips corruption thrust to
           C           G
 still the labor of my breath
Bm (7th fret)      Am (5th fret)
 When we are dust, when we are dust
F#m                Em
 When we are dust, when we are dust
Em (lead played in background) C
 When the white flame in us is gone
     G                D     
 And we that lost the world's delight
C
 Stiffen in darkness.
G
 Left alone
Bm                 Am
 To crumble in our separate light
D                        D7
 When your swift hair is quiet in death
C                                Bb
 And through the lips corruption thrust to
           C           G
 still the labor of my breath.
Bm                 Am
 When we are dust, when we are dust
F#m                Em
 When we are dust, when we are dust

Outro:
Emadd9 Em Emadd9 Em Emadd9
Добавлено: 22.03.2012
Другие материалы по этой песне:
  • Аккорды и текст

Страница создана 07.03.2012
http://primanota.ru/fleetwood-mac/dust-chords.htm
Привет, Гость.
Предлагаем пройти революционный курс по гитаре.
Подарок от PrimaNota.Ru, забирай!