PrimaNota.ru - самый крупный в мире бесплатный архив песенных текстов, аккордов, табулатур и нот


Five Finger Death Punch - Under And Over It - текст песни, таба, видео

Регистрация Запомнить меня
Войти через:  Facebook Google Twitter Vk Yandex Mail.ru

Five Finger Death Punch - Under And Over It - текст песни, таба, видео

Печатать
Просмотров: 1027
Авторы музыки: Ivan Moody, Jeremy Spencer, Kevin Churko, Zoltan Bathory, Jason Hook
Авторы текста: Ivan Moody, Jeremy Spencer, Kevin Churko, Zoltan Bathory, Jason Hook
Song: Under and Over It
Artist: Five Finger Death Punch
Tuning: B Standard (B E A D F# B)
Tabbed By: THE_distured_1
Email: darhode@gmail.com

Well here is Under and Over It. I've seen so many requests for this song
to be tabbed out that I finally got my act together and started to work
on it. I did have to get a little help from You Tube. Any corrections are gladly welcomed. 
I am pretty sure this is correct, including the solo.
Other than that here is the song.

Update : 2-15-1012 Fixed solo. Fixed Chorus. Should be dead on now.
Update : 2-11-2012 Fixed a typo and fixed the palm mutes in verse and pre-              
                   verse.

Intro
x4
|--------------------------------|
|--------------------------------|
|--------------------------------|
|--------------------------------|
|5--------------3-2--------------|
|3-0-0-0-000000-1-0-0-0-0-000000-|
   . . . ......     . . . ...... 

Pre-Verse 1
x2
|----------------|----------------|----------------|-------------------|
|----------------|----------------|----------------|-------------------|
|----------------|----------------|----------------|9-9-9-9-9-10-10-10\|
|----------------|----------------|----------------|-------------------|
|3---3---3-5-3---|3---3---3-5-3---|3---3---3-5-3---|7-7-7-7-7-8--8--8-\|
|1---1---1-3-1---|1---1---1-3-1---|1---1---1-3-1---|-------------------|
                  . 
                               
Verse 1
x3
|----------------|----------------|----------------|-------------------|
|----------------|----------------|----------------|-------------------|
|----------------|----------------|----------------|9-9-9-9-9-10-10-10\|
|----------------|----------------|----------------|-------------------|
|2---2---2-3-2---|2---2---2-3-2---|2---2---2-3-2---|7-7-7-7-7-8--8--8-\|
|0---0---0-1-0---|0---0---0-1-0---|0---0---0-1-0---|-------------------|
                  .      
                          
x1
|----------------|----------------|----------------|----------------------|
|----------------|----------------|----------------|----------------------|
|----------------|----------------|----------------|9-9-11-11-12-12-10-10\|
|----------------|----------------|----------------|----------------------|
|2---2---2-3-2---|-2-3-2-2-2-3-2--|2---2---2-3-2---|7-7-9--9--10-10-8--8-\|
|0---0---0-1-0---|-0-1-0-0-0-1-0--|0---0---0-1-0---|----------------------|                   
                         .

Chorus 1
x4
|----------------------------------|
|----------------------------------|
|----------------------------------|
|9---7-----7---------5-----5-----5-|
|7---5-----5---7-----3-----3-----3-|
|------000-----5-000---000---000---|
       ...       ...   ...   ...

Pre-Verse 2
x2
|----------------|----------------|----------------|-------------------|
|----------------|----------------|----------------|-------------------|
|----------------|----------------|----------------|9-9-9-9-9-10-10-10\|
|----------------|----------------|----------------|-------------------|
|3---3---3-5-3---|3---3---3-5-3---|3---3---3-5-3---|7-7-7-7-7-8--8--8-\|
|1---1---1-3-1---|1---1---1-3-1---|1---1---1-3-1---|-------------------|
                  . 
                               
Verse 2
x3
|----------------|----------------|----------------|-------------------|
|----------------|----------------|----------------|-------------------|
|----------------|----------------|----------------|9-9-9-9-9-10-10-10\|
|----------------|----------------|----------------|-------------------|
|2---2---2-3-2---|2---2---2-3-2---|2---2---2-3-2---|7-7-7-7-7-8--8--8-\|
|0---0---0-1-0---|0---0---0-1-0---|0---0---0-1-0---|-------------------|
                  .      
                          
x1
|----------------|----------------|----------------|----------------|
|----------------|----------------|----------------|----------------|
|----------------|----------------|----------------|----------------|
|----------------|----------------|----------------|----------------|
|2---2---2-3-2---|--2-3-2--2-3-2--|2---2---2-3-2---|----------------|
|0---0---0-1-0---|--0-1-0--0-1-0--|0---0---0-1-0---|----------------|                  

Chorus 2
|----------------------------------|
|----------------------------------|
|----------------------------------|
|9---7-----7---------5-----5-----5-|
|7---5-----5---7-----3-----3-----3-|
|------000-----5-000---000---000---|
       ...       ...   ...   ...

|----------------------------------|
|----------------------------------|
|----------------------------------|
|9---7-----7---------5-------------|
|7---5-----5---7-----3-------------|
|------000-----5-000---00000300300-|
       ...       ...   ..... .. ..

|--------------------------------|
|--------------------------------|
|--------------------------------|
|9---7-----7---------5-----------|
|7---5-----5---7-----3-----3---3-|
|------000-----5-000---0000-000--|
       ...       ...   ...  ...

|----------------------------------|
|----------------------------------|
|----------------------------------|
|9---7-----7---------5-----5-----5-|
|7---5-----5---7-----3-----3-----3-|
|------000-----5-000---000---000---|
       ...       ...   ...   ...

Pre-Solo
|----------------|----------------|----------------|------------|
|----------------|----------------|----------------|------------|
|----------------|----------------|----------------|------------|
|----------------|----------------|----------------|------------|
|2---------3-2---|2---------3-2---|2---------3-2---|5-5-5-3-3-3-|
|0-0000000-1-0---|0-0000000-1-0---|0-0000000-1-0---|3-3-3-1-1-1-|
   .......          .......          .......        . . . . . .

*Only the lead guitar does the slide at the end*
|----------------|----------------|----------------|------------|
|----------------|----------------|----------------|------------|
|----------------|----------------|----------------|----------\-|
|----------------|----------------|----------------|------------|
|2---------3-2---|2---------3-2---|2---------3-2---|5-5-5-3-3-3-|
|0-0000000-1-0---|0-0000000-1-0---|0-0000000-1-0---|3-3-3-1-1-1-|
   .......          .......          .......        . . . . . .

SOLO

|----------------------------------------------7-----5-----5----|
|14-16-12-12-14-14-10-10-12-12-8-8-10-10-12~-----8-----6--------|
|--------------------------------------------9-----7-----7---7~-|
|---------------------------------------------------------------|
|---------------------------------------------------------------|
|---------------------------------------------------------------|

|----------------------------------------------7-----5-------------|
|14-16-12-12-14-14-10-10-12-12-8-8-10-10-12~-----8----------14-15~-|
|--------------------------------------------9-----7---7-7---------|
|------------------------------------------------------------------|
|------------------------------------------------------------------|
|------------------------------------------------------------------|

|-----------------------------------------------------------------19-22b~-|
|15-------15--------15-------15-----------------------------17-20---------|
|---14-12----14-12-----14-12----14-12----------12~-15-17-17---------------|
|-------------------------------------10\12-14----------------------------|
|-------------------------------------------------------------------------|
|-------------------------------------------------------------------------|

SOLO Rhythm
|----------------|----------------|----------------|----------------|
|----------------|----------------|----------------|----------------|
|----------------|----------------|----------------|----------------|
|2---2---2-3-2-2-|2---2---2-3-2---|2---2---2-3-2---|----------------|
|0---0---0-1-0-0-|0---0---0-1-0---|0---0---0-1-0---|----------------|
                .

|----------------|----------------|----------------|----------------|
|----------------|----------------|----------------|----------------|
|----------------|----------------|----------------|----------------|
|2---2---2-3-2-2-|2---2---2-3-2---|2---2---2-3-2---|----------------|
|0---0---0-1-0-0-|0---0---0-1-0---|0---0---0-1-0---|----------------|
                .

|----------------|----------------|----------------|----------------|
|----------------|----------------|----------------|----------------|
|----------------|----------------|----------------|----------------|
|2---2---2-3-2-2-|2---2---2-3-2---|2---2---2-3-2---|----------------|
|0---0---0-1-0-0-|0---0---0-1-0---|0---0---0-1-0---|----------------|
                .

|----------------|----------------|----------------|----------------------|
|----------------|----------------|----------------|----------------------|
|----------------|----------------|----------------|9-9-11-11-12-12-10-10\|
|----------------|----------------|----------------|----------------------|
|2---2---2-3-2---|-2-3-2-2-2-3-2--|2---2---2-3-2---|7-7-9--9--10-10-8--8-\|
|0---0---0-1-0---|-0-1-0-0-0-1-0--|0---0---0-1-0---|----------------------|
                         .
Chorus 3
x5
|----------------------------------|
|----------------------------------|
|----------------------------------|
|9---7-----7---------5-----5-----5-|
|7---5-----5---7-----3-----3-----3-|
|------000-----5-000---000---000---|
       ...       ...   ...   ...

Outro
|----------------|----------------|----------------|------------|
|----------------|----------------|----------------|------------|
|----------------|----------------|----------------|------------|
|----------------|----------------|----------------|------------|
|2---------3-2---|2---------3-2---|2---------3-2---|5-5-5-3-3-3-|
|0-0000000-1-0---|0-0000000-1-0---|0-0000000-1-0---|3-3-3-1-1-1-|
   .......          .......          .......        . . . . . .

|----------------|----------------|----------------|------------|
|----------------|----------------|----------------|------------|
|----------------|----------------|----------------|------------|
|----------------|----------------|----------------|------------|
|2---------3-2---|2---------3-2---|2---------3-2---|5-5-5-2-2-2-|
|0-0000000-1-0---|0-0000000-1-0---|0-0000000-1-0---|3-3-3-0-0-0-|
   .......          .......          .......        . . . . . .

END

Key:
b = Bend
~ = Vibrato
. = Palm Mute
\ = Slide Down
Добавлено: 10.05.2012
Другие материалы по этой песне:

Страница создана 17.03.2012
http://primanota.ru/five-finger-death-punch/under-and-over-it-chords.htm
Привет, Гость.
Предлагаем пройти революционный курс по гитаре.
Подарок от PrimaNota.Ru, забирай!