PrimaNota.ru - самый крупный в мире бесплатный архив песенных текстов, аккордов, табулатур и нот


First Aid Kit - Josefin - таба, видео

Регистрация Запомнить меня
Войти через:  Facebook Google Twitter Vk Yandex Mail.ru

First Aid Kit - Josefin - таба, видео

Печатать
Просмотров: 137
Авторы: Johanna Söderberg, Klara Söderberg

Josefin by First Aid Kit.
Standard tuning, no capo.

       G5     (used for verse, chorus & bridge. if you prefer, you don't have to 
separate the last two notes. it sounds fine either way.)
e|--------------------------------|
B|------3------3------3------3----|
G|------0------0------0--------0--|
D|---------0-------------0--------|
A|--------------------------------|
E|---3--------------3-------------|

      C.........G5         (used in chorus)
e|--------------------------------|
B|-----3-----3-----3-----3--------|
G|-----0-----0-----0-----0--------|
D|--------2-----------0-----------|
A|--3-----------------------------|
E|---------------3----------------|

     D5/A                           (used in chorus & bridge)
e|--------------------------------|
B|------3-----3-----3-----3-------|
G|------2-----2-----2-----2-------|
D|---------0-----------0----------|
A|---0-----------0----------------|
E|--------------------------------|

Cadd9 (used in last chorus)
e|---0-----------------------------|
B|---3-----------------------------|
G|---0-----------------------------|
D|---2-----------------------------|
A|---3-----------------------------|
E|---------------------------------|

Intro:
G5 x 4

VERSE ONE:
G5
You go with feet bare in the snow, you raise up your head to the dead
You seek of such magical things and nobody knows where you've been

CHORUS ONE:
G5             C........G5     G5                     C........G5
In the light the growing light, you know it isn't hard to fight
G5              C........G5  G5           C........G5   G5*
The demons you left behind, the demons you left behind
D5/A
behind

G5

VERSE TWO:
G5
You run up the hills through the sun, you go head held high, face the sky
You know of such magical things and nobody knows you within

CHORUS TWO:
G5             C........G5      G5                          C........G5
In the rain the pouring rain, don't loose your hope don't loose in vain
G5                 C........G5   G5               C........G5  G5*
There's demons you fear tonight, those demons you have to fight
D5/A
fight

G5

BRIDGE (not sure about this part):
D5/A       G5             D5/A            G5
And if you struggle hard, rest on your brother's weary shoulder
D5/A       G5                 D/A            G5
And if you shall ever wonder, listen to your wise mother
D5/A
mother

CHORUS THREE:
G5              C........G5   G5                    C........G5
In the dark the growing dark, you know that you can find the spark
G5              C........G5     G5              C........G5  G5*
That guides you home my friend, that guides you home my friend
(strum these two lines)
D5/A
My friend
Cadd9 D5/A
 Josefin


as i previously stated, i'm not positive about what is played in the bridge. what i have 
sounds fine, but it also sounds ok if you play it the same way as the chorus.

*the G5 at the end of the chorus just before the D5/A are played like this
e|---------------|
B|------3------3-|
G|------0------0-|
D|---------0-----|
A|---------------|
E|---3-----------|
Добавлено: 05.08.2013
Другие материалы по этой песне:
  • Аккорды и текст

Страница создана 05.08.2013
http://primanota.ru/first-aid-kit/josefin-chords.htm
Привет, Гость.
Предлагаем пройти революционный курс по гитаре.
Подарок от PrimaNota.Ru, забирай!