PrimaNota.ru - самый крупный в мире бесплатный архив песенных текстов, аккордов, табулатур и нот


Finger Eleven - Good Time - бас-таба, видео

Регистрация Запомнить меня
Войти через:  Facebook Google Twitter Vk Yandex Mail.ru

Finger Eleven - Good Time - бас-таба, видео

Печатать
Просмотров: 130
song: good times
artist: finger eleven
tabber: Steph. (cyberbassist@hotmail.com)

Standard tuning

Intro: 8X

G:|---------------------|
D:|-----15-16161616-15\-|
A:|-/13-----------------|
E:|---------------------|

Verse:

G:|---------------------------------------|
D:|----1--3----1--3----1--3----1--3-------|
A:|-3-------3-------3-------3-------------|
E:|---------------------------------------|


pre-chorus: (on fret 1)
                                               Last time..
G:|-------------------------------------------|------|
D:|-------------------------------------------|------|
A:|-1111101010111110101011111010101111101010--|------|
E:|-------------------------------------------|-4/16-|

Chorus Riffs

G:|----------------------------------------------------|
D:|----------------------------------------------------|
A:|-1--44-66--0-1--44-4-33-1-44-66-/-11-11-11-11-11-11-|
E:|----------------------------------------------------|

G:|-----------------------------------------------|
D:|---------------------------------6-------------|
A:|-1--44-66--0-1--44-4-33-1-44-66----4---3-------|
E:|-----------------------------------------4-----|

Interlude 3X

G:|---------------------------------------------|
D:|---16--16--16--16--16--16--16--16------------|
A:|-14--14--14--14--14--14--14--14--------------|
E:|---------------------------------------------|

G:|---------------------------------------------|
D:|---13--13--13--13--13--13--13--13------------|
A:|-11--11--11--11--11--11--11--11--------------|
E:|---------------------------------------------|


Ending: 2X

G:|---------------------------------------------|
D:|---------------------------------------------|
A:|-13-1313-13-16-1616-16-18-1818-18-20-2020-20-|
E:|---------------------------------------------|

G:|---------------------------------------------|
D:|---------------------------------------------|
A:|-13-1313-13-16-1616-16------------13-1313-13-|
E:|-----------------------16-1616-16------------|

EnJoY!
Добавлено: 12.04.2012
Другие материалы по этой песне:
  • Аккорды и текст

Страница создана 12.04.2012
http://primanota.ru/finger-eleven/good-time-chords.htm
Привет, Гость.
Предлагаем пройти революционный курс по гитаре.
Подарок от PrimaNota.Ru, забирай!