PrimaNota.ru - самый крупный в мире бесплатный архив песенных текстов, аккордов, табулатур и нот


Finger Eleven - Murder My Minds Eye - таба, видео

Регистрация Запомнить меня
Войти через:  Facebook Google Twitter Vk Yandex Mail.ru

Finger Eleven - Murder My Minds Eye - таба, видео

Печатать
Просмотров: 119
Уроки эстрадного вокала в Санкт-Петербурге
-------------------------------------------------------------------------------
                             Murder My Mind's Eye
-------------------------------------------------------------------------------

Artist: Finger Eleven

Album: Us vs. Then vs. Now (DVD/CD combo)  (2007)

Tabbed by: Ben Huhndorf


Tuning: D A D G B E

Awesome acoustic song this. The hammer-ons are hard to get down at first, but its pretty simple.
I may not have tabbed the rhythm right, so listen to the song first to get the tempo.
I'll tab out the bridge/outro as soon as I can
Coments/suggestions welcome!


Intro

e|--------------------------------------------------------|
B|--------------------------------------------------------|
G|------11--------------------------11--------------------|
D|-9----9----9----11-9--11-13--9----9----9----11-9--11-13-|
A|-9----9----9----9--9--9--9---9----9----9----9--9--9--9--|
D|-9----9----9----9--9--9--9---9----9----9----9--9--9--9--|

e|--------------------------------------------------------|
B|--------------------------------------------------------|
G|-----8--------------------------------------------------|
D|-6---6---6-6----8----8-----8h9p8-8----8h98-6----6-6-----|
A|-6---6---6-6----6----6-----6-----6----6----6----6-6-----|
D|-6---6---6-6----6----6-----6-----6----6----6----6-6-----|




First verse

("You've wasted your memories...")
e|--------------------------------------------------------|
B|--------------------------------------------------------|
G|------11--------------------------11--------------------|
D|-9----9----9----11-9--11-13--9----9----9----11-9--11-13-|
A|-9----9----9----9--9--9--9---9----9----9----9--9--9--9--|
D|-9----9----9----9--9--9--9---9----9----9----9--9--9--9--|

e|--------------------------------------------------------|
B|--------------------------------------------------------|
G|-----8--------------------------------------------------|
D|-6---6---6-6----8----8-----8h9p8-6----8h98-6----6-6-----|
A|-6---6---6-6----6----6-----6-----6----6----6----6-6-----|
D|-6---6---6-6----6----6-----6-----6----6----6----6-6-----|

("All I remmber...")
e|--------------------------------------------------------|
B|--------------------------------------------------------|
G|------11--------------------------11--------------------|
D|-9----9----9----11-9--11-13--9----9----9----11-9--11-13-|
A|-9----9----9----9--9--9--9---9----9----9----9--9--9--9--|
D|-9----9----9----9--9--9--9---9----9----9----9--9--9--9--|

e|--------------------------------------------------------|
B|--------------------------------------------------------|
G|-----8--------------------------------------------------|
D|-6---6---6-6----8----8-----8h9p8-6----8h98-6----6-6-----|
A|-6---6---6-6----6----6-----6-----6----6----6----6-6-----|
D|-6---6---6-6----6----6-----6-----6----6----6----6-6-----|

("I'll stick around...")
e|--------------------------------------------------------|
B|--------------------------------------------------------|
G|------11--------------------------11--------------------|
D|-9----9----9----11-9--11-13--9----9----9----11-9--11-13-|
A|-9----9----9----9--9--9--9---9----9----9----9--9--9--9--|
D|-9----9----9----9--9--9--9---9----9----9----9--9--9--9--|
e|--------------------------------------------------------|
B|--------------------------------------------------------|
G|-----8--------------------------------------------------|
D|-6---6---6-6----8----8-----8h9p8-6----8h98-6----6-6-----|
A|-6---6---6-6----6----6-----6-----6----6----6----6-6-----|
D|-6---6---6-6----6----6-----6-----6----6----6----6-6-----|

("Precausion and warmth...")
e|--------------------------------------------------------|
B|--------------------------------------------------------|
G|------11--------------------------11--------------------|
D|-9----9----9----11-9--11-13--9----9----9----11-9--11-13-|
A|-9----9----9----9--9--9--9---9----9----9----9--9--9--9--|
D|-9----9----9----9--9--9--9---9----9----9----9--9--9--9--|

e|--------------------------------------------------------|
B|--------------------------------------------------------|
G|-----8--------------------------------------------------|
D|-6---6---6-6----8----8-----8h9p8-6----8h98-6----6-6-----|
A|-6---6---6-6----6----6-----6-----6----6----6----6-6-----|
D|-6---6---6-6----6----6-----6-----6----6----6----6-6-----|





Pre-chorus
 
("Just not for me...")
e|-----------------------------------------------------------|
B|----------------------------4~-----------------------------|
G|----------------------------4~-------------4-------6-------|
D|-4---6---4----2~------------4~---------2-2-4---4-4-6---4-4-|
A|-4---4---4----2~------------2~---------2-2-2---4-4-4---4-4-|
D|-4---4---4----2~------------2~---------2-2-2---4-4-4---4-4-|




Chorus 

("Waiting for changes...")
e|-----------------------------------------------|
B|-----------------------------------------------|
G|---8-------------------------------------------|
D|-6-6--6-6--8~---8~----8h9p8-8----8h98-8----8-8-|
A|-6-6--6-6--6~---6~----6-----6----6----6----6-6-|
D|-6-6--6-6--6~---6~----6-----6----6----6----6-6-|

e|------------------------------------------------------|
B|-----------------------4~-----------------------------|
G|-----------------------4~-------------4-------6-------|
D|-4---6---2~---------4--4~---------2-2-4---4-4-6---4-4-|
A|-4---4---2~---------2--2~---------2-2-2---4-4-4---4-4-|
D|-4---4---2~---------2--2~---------2-2-2---4-4-4---4-4-|

("Watching the changes...")
e|-----------------------------------------------|
B|-----------------------------------------------|
G|---8-------------------------------------------|
D|-6-6--6-6--8~---8~----8h9p8-8----8h98-8----8-8-|
A|-6-6--6-6--6~---6~----6-----6----6----6----6-6-|
D|-6-6--6-6--6~---6~----6-----6----6----6----6-6-|




Second verse

("Show me the difference...")
e|--------------------------------------------------------|
B|--------------------------------------------------------|
G|------11--------------------------11--------------------|
D|-9----9----9----11-9--11-13--9----9----9----11-9--11-13-|
A|-9----9----9----9--9--9--9---9----9----9----9--9--9--9--|
D|-9----9----9----9--9--9--9---9----9----9----9--9--9--9--|

e|--------------------------------------------------------|
B|--------------------------------------------------------|
G|-----8--------------------------------------------------|
D|-6---6---6-6----8----8-----8h9p8-6----8h98-6----6-6-----|
A|-6---6---6-6----6----6-----6-----6----6----6----6-6-----|
D|-6---6---6-6----6----6-----6-----6----6----6----6-6-----|

("Show me the difference...")
e|--------------------------------------------------------|
B|--------------------------------------------------------|
G|------11--------------------------11--------------------|
D|-9----9----9----11-9--11-13--9----9----9----11-9--11-13-|
A|-9----9----9----9--9--9--9---9----9----9----9--9--9--9--|
D|-9----9----9----9--9--9--9---9----9----9----9--9--9--9--|

e|--------------------------------------------------------|
B|--------------------------------------------------------|
G|-----8--------------------------------------------------|
D|-6---6---6-6----8----8-----8h9p8-6----8h98-6----6-6-----|
A|-6---6---6-6----6----6-----6-----6----6----6----6-6-----|
D|-6---6---6-6----6----6-----6-----6----6----6----6-6-----|




Pre-chorus
 
("Cause we're both here...")
e|-----------------------------------------------------------|
B|----------------------------4~-----------------------------|
G|----------------------------4~-------------4-------6-------|
D|-4---6---4----2~------------4~---------2-2-4---4-4-6---4-4-|
A|-4---4---4----2~------------2~---------2-2-2---4-4-4---4-4-|
D|-4---4---4----2~------------2~---------2-2-2---4-4-4---4-4-|



Chorus 

("Waiting for changes...")
e|-----------------------------------------------|
B|-----------------------------------------------|
G|---8-------------------------------------------|
D|-6-6--6-6--8~---8~----8h9p8-8----8h98-8----8-8-|
A|-6-6--6-6--6~---6~----6-----6----6----6----6-6-|
D|-6-6--6-6--6~---6~----6-----6----6----6----6-6-|

e|------------------------------------------------------|
B|-----------------------4~-----------------------------|
G|-----------------------4~-----4-------4-------6-------|
D|-4---6---2~---------4--4~--x--4---2-2-4---4-4-6---4-4-|
A|-4---4---2~---------2--2~--x--2---2-2-2---4-4-4---4-4-|
D|-4---4---2~---------2--2~--x--2---2-2-2---4-4-4---4-4-||

("Watching the changes...")
e|-----------------------------------------------|
B|-----------------------------------------------|
G|---8-------------------------------------------|
D|-6-6--6-6--8~---8~----8h9p8-8----8h98-8----8-8-|
A|-6-6--6-6--6~---6~----6-----6----6----6----6-6-|
D|-6-6--6-6--6~---6~----6-----6----6----6----6-6-|

e|------------------------------------------------------|
B|-----------------------4~-----------------------------|
G|-----------------------4~-----4-------4-------6-------|
D|-4---6---2~---------4--4~--x--4---2-2-4---4-4-6---4-4-|
A|-4---4---2~---------2--2~--x--2---2-2-2---4-4-4---4-4-|
D|-4---4---2~---------2--2~--x--2---2-2-2---4-4-4---4-4-|

("Waiting for changes...")
e|-----------------------------------------------|
B|-----------------------------------------------|
G|---8-------------------------------------------|
D|-6-6--6-6--8~---8~----8h9p8-8----8h98-8----8-8-|
A|-6-6--6-6--6~---6~----6-----6----6----6----6-6-|
D|-6-6--6-6--6~---6~----6-----6----6----6----6-6-|

e|------------------------------------------------------|
B|-----------------------4~-----------------------------|
G|-----------------------4~-----4-------4-------6-------|
D|-4---6---2~---------4--4~--x--4---2-2-4---4-4-6---4-4-|
A|-4---4---2~---------2--2~--x--2---2-2-2---4-4-4---4-4-|
D|-4---4---2~---------2--2~--x--2---2-2-2---4-4-4---4-4-|

("To take their place...")
e|-----------------------------------------------|
B|-----------------------------------------------|
G|-----------------------------------------------|
D|-6----6-6--8~---8~----8h9p8-8----8h98-8----8-8-|
A|-6----6-6--6~---6~----6-----6----6----6----6-6-|
D|-6----6-6--6~---6~----6-----6----6----6----6-6-|









===============================================================================
Добавлено: 16.03.2012
Другие материалы по этой песне:
  • Аккорды и текст

Страница создана 16.03.2012
http://primanota.ru/finger-eleven/murder-my-minds-eye-chords.htm
Привет, Гость.
Предлагаем пройти революционный курс по гитаре.
Подарок от PrimaNota.Ru, забирай!