PrimaNota.ru - самый крупный в мире бесплатный архив песенных текстов, аккордов, табулатур и нот


Fidlar - Punks - таба, видео

Регистрация Запомнить меня
Войти через:  Facebook Google Twitter Vk Yandex Mail.ru

Fidlar - Punks - таба, видео

Печатать
Просмотров: 226
Уроки эстрадного вокала в Санкт-Петербурге
Tabbed by nonazis, Key of Em.

This song is also known as 'The Punks are Finally Taking Acid'. I found a tab for this song a while ago, but
it has since been lost.

Main Riff/Chorus

e----------------------|-----------------|---------------------|-------------------|
B----------------------|-----------------|---------------------|-------------------|
G----------------------|-----------------|---------------------|-------------------|
D---5------------------|---5-------------|---5-----------------|---7p5-------------|
A-----7---7-7-----5h7--|-----7---7-------|-----7---7-7-----5h7-|-------7---7-------|
E-0-----0-----5h7------|-0-----0---5-6-7-|-0-----0-----5h7-----|-0-------0---5-6-7-|

Second Riff/Verse

e-------------------|---------------------|-------------------|------------------|
B-------------------|---------------------|-------------------|------------------|
G-------------------|---------------------|-------------------|------------------|
D-------------------|---------------------|-------------------|------------------|
A---7-7---7-7-------|---7-7---7-7-----5h7-|---7-7---7-7-------||---7-7---7-------|
E-0-----0-----3h5p3-|-0-----0-----5h7-----|-0-----0-----3h5p3-|-0-----0----5-6-7-|

The two verses just alternate throughout the song. Feel free to improvise during the funky part.

Simplified Solo:

e-------------------|-------------------|--------------------|-------------------|
B-------------------|-------------------|--------------------|-------------------|
G-------------------|-------------------|--------------------|-14p12-------------|
D-7-7p5-------5-7-7-|---7p5-------5-7-9-|-9-9-12-12-14-14-14-|-------12-12-------|
A-------7-5h7-------|-------7-5h7-------|--------------------|-------------------|
E-------------------|-------------------|--------------------|-------------------|
Добавлено: 22.02.2016
Другие материалы по этой песне:
  • Аккорды и текст

Страница создана 22.02.2016
http://primanota.ru/fidlar/punks-chords.htm
Привет, Гость.
Предлагаем пройти революционный курс по гитаре.
Подарок от PrimaNota.Ru, забирай!