PrimaNota.ru - самый крупный в мире бесплатный архив песенных текстов, аккордов, табулатур и нот


Fidlar - Lda - аккорды и текст, таба, видео

Регистрация Запомнить меня
Войти через:  Facebook Google Twitter Vk Yandex Mail.ru

Fidlar - Lda - аккорды и текст, таба, видео

Печатать
Просмотров: 143
Lda
Fidlar
-----------
LDA- Fidlar
-----------

For this song, feel free to use a blues-ish rhythm, kind of like this:
e|-----------------------------------------------------------------|
B|-----------------------------------------------------------------|
G|-2-2-2-2-2-2-2-2-2-2-2-2-2-2-2-2---------------------------------|
D|-2-2-4-2-2-2-4-2-2-2-4-2-2-2-4-2-2-2-2-2-2-2-2-2-2-2-2-2-2-2-----|
A|-0-0-0-0-0-0-0-0-0-0-0-0-0-0-0-0-2-2-4-2-2-2-4-2-2-2-4-2-2-2-----|
E|---------------------------------0-0-0-0-0-0-0-0-0-0-0-0-0-0-2h4-|

anyway,

INTRO: 

A (x16) E

fill:
e|---------|
B|---------|
G|---------|
D|-4-2-----|
A|-----4-2-|
E|---------|

VERSE:
A                   E      A               E
Used you when I was lonely since I was eighteen
A                    E     F#
You were the one and only, guy I would see.
A                    E       A                 E
Dyed my hair and got skinny, just ?cause you told me to.
A                      E
People just wouldn?t believe me
       F#
When I told them it was you. It was you.

CHORUS:
B F# A E   B F# A E
Bye,  LDA
   B F# A     E      B F# A E
My life won?t be the same.

BREAK:
A E (x3)
F#

VERSE:
A                    E       A               E
Dyed my hair and got skinny, just ?cause you told me to. 
A                    E
People just wouldn?t believe me 
       F#
When I told 'em it was you. It was you.

CHORUS:
B F# A E   B F# A E
Bye,  LDA
   B F# A     E      B F# A E
My life won?t be the same.

(repeat chorus once)

BREAK 2:
A E (x3)
F#

OUTRO:
e|------------|
B|---------2--|
G|---------2--|
D|-4-2-----2--|
A|-----4-2-0--|
E|------------|
Добавлено: 10.11.2014
Другие материалы по этой песне:
  • Аккорды и текст

Страница создана 10.11.2014
http://primanota.ru/fidlar/lda-chords.htm
Привет, Гость.
Предлагаем пройти революционный курс по гитаре.
Подарок от PrimaNota.Ru, забирай!