PrimaNota.ru - самый крупный в мире бесплатный архив песенных текстов, аккордов, табулатур и нот


Fernando Sor - Etude No 3 Op 60 - таба, видео

Регистрация Запомнить меня
Войти через:  Facebook Google Twitter Vk Yandex Mail.ru

Fernando Sor - Etude No 3 Op 60 - таба, видео

Печатать
Просмотров: 75
                            Etude No.3 op.60                             


                                                               Fernando Sor
                                                               
E||-------0---------|-----------------|-------2---------|----------------|
B||--0---------0----|--1----0---------|--0--------------|----------------|
G||--0---------0----|--2----0---------|------------2----|--2----0--------|
D||-----------------|------------2----|--1--------------|--2-------------|
A||-----------------|-----------------|-----------------|----------------|
E||--0--------------|-----------------|-----------------|----------------|


                                                      
-------0---------|------------0----|-----------------|
--0---------0----|--1----0---------|-----------------|
--0---------0----|--2----0---------|-------0----2----|
-----------------|-----------------|-------2----4----|
-----------------|-----------------|--0--------------|
--0--------------|-----------------|-----------------|


                                                            
--------------------||-----------------||--------0----0----|
--------------------||--0--------------||---0--------------|
--0----------------*||-----------------||*-----------------|
--1----------------*||--1--------------||*-----------------|
-----2----0---------||-------2----0----||------------------|
-------------3--2---||-----------------||---4--------------|


                                                                          
--0--------------|------------1----|-------------------|-----------------|
--1----3----1----|--0--------------|--3-----------1----|--1----1----1----|
-------4----2----|-------2---------|--------1-----2----|--2----2----2----|
-----------------|--0--------------|-----2-----2-------|------------2----|
--0--------------|-----------------|--0----------------|--0----3---------|
-----------------|-----------------|-------------------|-----------------|


                                                                         
------------------|--0----0----0----|-----------------|-------0---------|
--0---------0-----|-----------------|--4----0---------|--0---------0----|
--2---------0-----|--0----0----0----|------------2----|--0---------0----|
--1---------2--0--|-----------------|--4--------------|-----------------|
-------2----------|--3----2----1----|--2--------------|-----------------|
------------------|-----------------|-----------------|--0--------------|


                                                                       
-----------------|-------2---------|----------------|-------0---------|
--1----0---------|--0--------------|----------------|--0---------0----|
--2----0---------|------------2----|--2----0--------|--0---------1----|
------------2----|--1--------------|--2-------------|-----------------|
-----------------|-----------------|----------------|-----------------|
-----------------|-----------------|----------------|--0--------------|


                                                         
------------------|------0-3----2----|--0--------------||
--3-----1---------|--0---------------|-----------------||
-----1--2---------|--0-----0----2----|--0-------------*||
------------------|-------------1----|--2-------------*||
--0----------3----|--2---------------|-----------------||
------------------|------------------|-------0---------||


Transcribed by Martin Altenbeck
MartinAltenbeck@web.de

____________________________________________________________________________
     
Добавлено: 22.08.2013
Другие материалы по этой песне:
  • Аккорды и текст

Страница создана 22.08.2013
http://primanota.ru/fernando-sor/etude-no-3-op-60-chords.htm
Привет, Гость.
Предлагаем пройти революционный курс по гитаре.
Подарок от PrimaNota.Ru, забирай!