PrimaNota.ru - самый крупный в мире бесплатный архив песенных текстов, аккордов, табулатур и нот


Feeder - Here In The Bubble - текст песни, таба, видео

Регистрация Запомнить меня
Войти через:  Facebook Google Twitter Vk Yandex Mail.ru

Feeder - Here In The Bubble - текст песни, таба, видео

Печатать
Просмотров: 111
SONG: HERE IN THE BUBBLE
TAB BY: ALEX BALL (Al_Fish18@hotmail.com)
NOTES: DROP C TUNING! There are loads of guitar parts in this and you have 
to listen closely
to pick them out.

TUNE LIKE THIS: tuning CGCFAD, like so:

D|-|
A|-|
F|-|
C|-|
G|-|
C|-|

GTR 1: (HEARD IN ALONE FOR INTRO)

D|--------------------------------------|
A|--------------------------------------|
F|--------------------------------------|
C|------14-----14-----14-----14-----14--|
G|----0------0------0------0------0-----|
C|--0------0------0------0------0-------|

GTR 2:

   Cmaj                  Csus4
D|----------------------------------------------------|
A|----------------------------------------------------|
F|----------------------------------------------------|
C|----------------------------------------------------|
G|----9---9---9---9---7----10---10---10---10--10s-12--|
C|--0---0---0---0---0----0----0----0----0-------------|

   Cmaj                  Csus4
D|----------------------------------------------------|
A|----------------------------------------------------|
F|----------------------------------------------------|
C|----------------------------------------------------|
G|----9---9---9---9---7----10---10---10---10--12s-14--|
C|--0---0---0---0---0----0----------------------------|

GTR 3:

    Cmaj                  Csus4
D|---------------------------------------------------------|
A|-------------------------------------------------12b-12--|
F|----11----11---11---11-----12----12----12----12----------|
C|--12---12---12---12-----12----12----12----12-------------|
G|---------------------------------------------------------|
C|---------------------------------------------------------|

GTR 4:

    Cmaj                  Csus4
D|------------------------------10--|
A|--------10-----------------10-----|
F|-----11-----------------12--------|
C|--12------------------------------|
G|----------------------------------|
C|----------------------------------|

VERSE: CHORD LAYOUT:

           C            Csus4
  "Keep my feet on this land"
         C        D    F               C
  "Gotta take the hand that guides me there"
        Csus4         C
  "As I reach do they stare?"
           D        F
  "Do they feel the same way?"

WHEN THE CHORDS ARE D and F PLAY:

GTR 1:

    D  F
D|--------|
A|--------|
F|--------|
C|--2--5--|
G|--2--5--|
C|--2--5--|

GTR 2:

    D  F
D|--0--5--|
A|--0--8--|
F|--0--7--|
C|--2--5--|
G|--2--5--|
C|--2--5--|

GTR 3:

D|--5-----5-----5-------|
A|----5-----5-----5-----|
F|------7-----7-----etc-|
C|----------------------|
G|----------------------|
C|----------------------|

CHORUS: DISTORTION ON: GTRS 1-4 REPEAT MAIN RIFF

GTR 5:

    Cmaj                 Csus4
D|---------------------------------------|
A|---------------------------------------|
F|--11-11-11b-11-11b-11--12-12-12b--etc--|
C|---------------------------------------|
G|---------------------------------------|
C|---------------------------------------|

             Cmaj Csus4
  I wanna be here!
             Cmaj
  I wanna be here, I see the face,
                Csus4
  Look back and then it calls to me,
             Cmaj      Csus4
  Wanna stay here, here,
                    Cmaj
  Just wanna be free,

BRIDGE:

    D  F
D|-----5--|
A|-----8--|
F|-----7--|
C|--2--5--|
G|--2--5--|
C|--2--5--|

    C  Bb
D|--------|
A|--------|
F|-----5--|
C|--0--5--|
G|--0--3--|
C|--0-----|
Добавлено: 14.09.2013
Другие материалы по этой песне:
  • Аккорды и текст

Страница создана 10.06.2012
http://primanota.ru/feeder/here-in-the-bubble-chords.htm
Привет, Гость.
Предлагаем пройти революционный курс по гитаре.
Подарок от PrimaNota.Ru, забирай!