PrimaNota.ru - самый крупный в мире бесплатный архив песенных текстов, аккордов, табулатур и нот


Feeder - Lost And Found - текст песни, таба, бас-таба, драм-таба, видео

Регистрация Запомнить меня
Войти через:  Facebook Google Twitter Vk Yandex Mail.ru

Feeder - Lost And Found - текст песни, таба, бас-таба, драм-таба, видео

Печатать
Просмотров: 187
Уроки эстрадного вокала в Санкт-Петербурге
Feeder – Lost & Found

Intro/Verse : -  (Repeat  x4)

E : ----------------------------------------------------------------|
B : ----------------------------------------------------------------|
G : -- 10------------------9----------------------------------------|
D : ---9----x12-----7------9---x2--9-------- -----------------------|
A: ---11------------7—x2---7-------9—x2-----------------------------|
E : ---9------------5--------------7--------------------------------|

'You're the right stuff, I got my head straight...'

Pre Chorus :- x2 (Clean)
Chorus x4
                                                    'It's pulling me..'
E : -----------------------------------------------|------------------|
B : -----------------------------------------------|------------------|
G : ---------------------- 9-------- 11------------|---9----11--------|
D : --11--------9----------9--x-4--- 11---x4-------|---9—x4-11--------|x4
A : --11—x4-----9----x4----7--------9--------------|---7-----9--------|
E : ---9--------7---------------------------------|-------------------|


Bridge : - x3

E : -12---9-------------------------------------------------------------|
B : ----------12---9----------------------------------------------------|
G : -------------------11---10---9--------------------------------------|
D : ----------------------------------11---9----------------------------|
A : ------------------------------------------11---10---9---------------|
E : ----------------------------------------------------------12--11—9--|

Outro :- x2

E : ---------------------------------------------------------------|
B : ---------------------------------------------------------------|
G : ---------------------9------------------ ----------------------|
D : ---9---------7-------9—x2---9---------11-/---------------------|
A : --11—x12-----7—x2----7------9—x2------11-/---------------------|
E : ---9---------5--------------7---------9--/---------------------|

Hope you enjoy it, this is my first tab too :)
Добавлено: 01.08.2013
Другие материалы по этой песне:

Страница создана 27.05.2012
http://primanota.ru/feeder/lost-and-found-chords.htm
Привет, Гость.
Предлагаем пройти революционный курс по гитаре.
Подарок от PrimaNota.Ru, забирай!