PrimaNota.ru - самый крупный в мире бесплатный архив песенных текстов, аккордов, табулатур и нот


Fear Factory - The Industrialist - таба, видео

Регистрация Запомнить меня
Войти через:  Facebook Google Twitter Vk Yandex Mail.ru

Fear Factory - The Industrialist - таба, видео

Печатать
Просмотров: 176
Уроки эстрадного вокала в Санкт-Петербурге
Fear Factory
The Industrialist
The Industrialist (2012)
Dino Cazares, Burton C. Bell, Rhys Fulber
Tuning: ADGCFAD (7-String)
Tabbed By: Makoto
4/17/2012

I will tab this with two guitars in the chance you want to play with a friend!

*This is my first tab ever I don't usually have "the ear for music" but this sounds 
correct imo.
Forgive if there's any mistakes.
And if you by chance use my tab as a basis for your own all I ask is that you give 
credit when credit is due. Thanks!



The Industrialist -

Intro:

Gtr 1: (Clean with effects)

D---------------------------------------|
A---------------------------------------|
F---------------------------------------|
C---------------------------------------|
G---------2-3-2---5-3-----2-------------|
D------5---------------5----------------|
A--0------------------------------------|


D-----------------------------------|
A-----------------------------------|
F-----------------------------------|
C-----------------------------------|
G------2-3-3-2----------------------|
D--5-------------5------------------|
A--------------------6-5-3-0~-------|




Gtr 2: (Clean with effects)

D---------------------------------|
A---------------------------------|
F---------------------------------|
C---------------------------------|
G---------------------------------|
D-----5--7-8-7---10-8--5--7-------|
A--0------------------------------|


D------------------------------------|
A------------------------------------|
F------------------------------------|
C------------------------------------|
G------------------------------------|
D--5--7-8-8-7--5---------------------|
A------------------6-5-3-0~----------|


Destroying our world...


Heavy Part:


Gtr 1: (Distorted)

D----------------------------------|
A----------------------------------|
F-----------4-5-4---7-5-----4------|
C------7----4-5-4---7-5--7--4------|
G--2---7----2-3-2---5-3--7--2------|
D--2---5-----------------5---------|
A--0-------------------------------|


D----------------------------------|
A----------------------------------|
F-------4-5-5-4--------------------|
C--7----4-5-5-4--7-----------------|
G--7----2-3-3-2--7--8-7-5-2~-------|
D--5-------------5--8-7-5-2~-------|
A-------------------6-5-3-0~-------|




Gtr 2: (Distorted)

D---------------------------------|
A---------------------------------|
F---------------------------------|
C------7--9-10-9--12-10-7--9------|
G--2---7--9-10-9--12-10-7--9------|
D--2---5--7-8--7--10-8--5--7------|
A--0------------------------------|


D---------------------------------|
A---------------------------------|
F---------------------------------|
C--7--9-10-10-9--7----------------|
G--7--9-10-10-9--7-8-7-5-2~-------|
D--5--7-8--8--7--5-8-7-5-2~-------|
A------------------6-5-3-0~-------|


The last A5 (022) you let it ring out, the bass drums come in then…


Pre-verse/Verse:

Gtr 1 & 2:

D------------------------------|
A------------------------------|
F------------------------------|
C------------------------------|
G------------------------------|
D------------------------------|
A--222222222222222-33333333----|



Break/Pre-Chorus: ("We have become" Riff) The last time you end on either 1st fret on D 
or 6th fret on A.

Gtr 1:

D--------------------|
A--------------------|
F--------------------|
C-----4-3------------|
G-6-5-4-3------------|
D-6-5-2-1---000000---|
A-4-3----------------|


Gtr 2

D--------------------|
A--------------------|
F--------------------|
C--------------------|
G-6-5-9-8------------|
D-6-5-9-8------------|
A-4-3-7-6---555555---|



Chorus:
The extra hits on the top A are palm muted and follow along with the snare hits.

Gtr 1:

D-----------------------------------|
A-----------------------------------|
F------------4-5-4---7-5-----4------|
C-------7----4-5-4---7-5--7--4------|
G--2----7----2-3-2---5-3--7--2------|
D--2----5-----------------5---------|
A--0-00------------00---------00----|


D----------------------------------|
A----------------------------------|
F-------4-5-5-4--------------------|
C--7----4-5-5-4--7-----------------|
G--7----2-3-3-2--7--8-7-5-2~-------|
D--5-------------5--8-7-5-2~-------|
A-------------------6-5-3-0~-------|


D-----------------------|
A-----------------------|
F--5-4------------------|
C--5-4--7---------------|
G--3-2--7--8-7-5--------|
D-------5--8-7-5--------|
A----------6-5-3--------|



Gtr 2:

D-----------------------------------|
A-----------------------------------|
F-----------------------------------|
C-------7--9-10-9---12-10-7--9------|
G--2----7--9-10-9---12-10-7--9------|
D--2----5--7-8--7---10-8--5--7------|
A--0-00-----------00-----------00---|


D---------------------------------|
A---------------------------------|
F---------------------------------|
C--7--9-10-10-9--7----------------|
G--7--9-10-10-9--7-8-7-5-2~-------|
D--5--7-8--8--7--5-8-7-5-2~-------|
A------------------6-5-3-0~-------|


D-----------------------|
A-----------------------|
F-----------------------|
C--10-9--7--------------|
G--10-9--7-8-7-5--------|
D--8--7--5-8-7-5--------|
A----------6-5-3--------|



Bridge:

Gtr 1 & 2:

D----------------|
A----------------|
F----------------|
C----------------|
G----------------|
D----------------|
A-22222222-------|



Burt: For Us!!!!!

Back into the verse riff for rhythm, but there's a added guitar melody.

D--------------------------------------------------|
A--7777--10-10-10-10-------------------------------|
F---------------------------10-10-10-10--8888------|
C--------------------------------------------------|
G--------------------------------------------------|
D--------------------------------------------------|
A--------------------------------------------------|


D--------------------------------------------------|
A--7777--10-10-10-10-------------------------------|
F---------------------------10-10-10-10--7777------|
C--------------------------------------------------|
G--------------------------------------------------|
D--------------------------------------------------|
A--------------------------------------------------|



D--------------------------------------------------|
A--7777--10-10-10-10--13-13-13-13--15-15-15-15-----|
F--------------------------------------------------|
C--------------------------------------------------|
G--------------------------------------------------|
D--------------------------------------------------|
A--------------------------------------------------|


D---------------------------------------------|
A--15--------17--------19--------21-----------|
F-------19--------21--------23--------24^-----|
C---------------------------------------------|
G---------------------------------------------|
D---------------------------------------------|
A---------------------------------------------|




Outro: This is the same notes as the chorus except more up beat and tiny picking 
variations the last two times it's played.
Добавлено: 24.07.2013
Другие материалы по этой песне:

Страница создана 24.07.2013
http://primanota.ru/fear-factory/the-industrialist-chords.htm
Привет, Гость.
Предлагаем пройти революционный курс по гитаре.
Подарок от PrimaNota.Ru, забирай!