PrimaNota.ru - самый крупный в мире бесплатный архив песенных текстов, аккордов, табулатур и нот


Falling In Reverse - The Bitter End - бас-таба, видео

Регистрация Запомнить меня
Войти через:  Facebook Google Twitter Vk Yandex Mail.ru

Falling In Reverse - The Bitter End - бас-таба, видео

Печатать
Просмотров: 138
Уроки эстрадного вокала в Санкт-Петербурге
F|-----------------------------------------------------------------|
C|-----------------------------------------------------------------|
G|-----------------------------------------------------------------|
C|-000-0-00000-0-00000-0-00000-0-00000-0-00000-0-00000-0-003-3-3-3-|
   1 + 2 + 3 + 4 + 1 + 2 + 3 + 4 + 1 + 2 + 3 + 4 + 1 + 2 + 3 + 4 +

F|-----------------------------------------------------------------|
C|-----------------------------------------------------------------|
G|-----------------------------------------------------------------|
C|-000-0-00000-0-00000-0-00000-0-00000-0-00000-0-00000-0-00--------|
   1 + 2 + 3 + 4 + 1 + 2 + 3 + 4 + 1 + 2 + 3 + 4 + 1 + 2 + 3 + 4 +

Verse 0:14
F|-----------------------------------------------------------------|
C|-----------------------------------------------------------------|
G|---------------------------------1-------------------------------|
C|-0-00-00-0---------00-00-0-333333--00-00-0-----1---00-00-0-333333|
   1 + 2 + 3 + 4 + 1 + 2 + 3 + 4 + 1 + 2 + 3 + 4 + 1 + 2 + 3 + 4 +

F|-----------------------------------------------------------------|
C|-----------------------------------------------------------------|
G|-1-------------------------------1-------------------------------|
C|---00-00-0-----1-------------------00-00-0-----0h1/--------------|
   1 + 2 + 3 + 4 + 1 + 2 + 3 + 4 + 1 + 2 + 3 + 4 + 1 + 2 + 3 + 4 +

Chorus 0:27
F|-----------------------------------------------------------------|
C|-----------------------------------------------------------------|
G|---------------------------------1-1-1---1-1---1---1-1---1-1-1---|
C|-0-------0-0-0-0-0-0-0---0-0-------------------------------------|
   1 + 2 + 3 + 4 + 1 + 2 + 3 + 4 + 1 + 2 + 3 + 4 + 1 + 2 + 3 + 4 +

F|-----------------------------------------------------------------|
C|-----------------------------------------------------------------|
G|-3-3-3---3-3-3-3-3-3-3---3-3-3---0-0-----0-0-0---0---------------|
C|-----------------------------------------------------5---3---2---|
   1 + 2 + 3 + 4 + 1 + 2 + 3 + 4 + 1 + 2 + 3 + 4 + 1 + 2 + 3 + 4 +

F|-----------------------------------------------------------------|
C|-----------------------------------------------------------------|
G|---------------------------------1-1-1-1-1-1-1-1-1-1-1---1-1-1-1-|
C|-0---------0-0-----0-0---0-0-0-----------------------------------|
   1 + 2 + 3 + 4 + 1 + 2 + 3 + 4 + 1 + 2 + 3 + 4 + 1 + 2 + 3 + 4 +

F|-----------------------------------------------------------------|
C|-----------------------------------------------------------------|
G|-3-3-3---3-3---3---3-3---3-3-3---0-0-0---0-0-0---0---0-0---------|
C|-----------------------------------------------------------5-3-2-|
   1 + 2 + 3 + 4 + 1 + 2 + 3 + 4 + 1 + 2 + 3 + 4 + 1 + 2 + 3 + 4 +

Verse 0:52
F|-----------------------------------------------------------------|
C|-----------------------------------------------------------------|
G|---------------------------------1-------------------------------|
C|-0-00-00-0---------00-00-0-333333--00-00-0-----1---00-00-0-333333|
   1 + 2 + 3 + 4 + 1 + 2 + 3 + 4 + 1 + 2 + 3 + 4 + 1 + 2 + 3 + 4 +

F|-----------------------------------------------------------------|
C|-----------------------------------------------------------------|
G|-1-------------------------------1-------------------------------|
C|---00-00-0---1---------------------00-00-0-----0h1/------0-0-----|
   1 + 2 + 3 + 4 + 1 + 2 + 3 + 4 + 1 + 2 + 3 + 4 + 1 + 2 + 3 + 4 +

Rest

1:11
F|-----------------------------------------------------------------|
C|-----------------------------------------------------------------|
G|-----------------------------------------------------------------|
C|-0-00-00-0---------00-00-0-00000---00-00-0-----0000000000--------|
   1 + 2 + 3 + 4 + 1 + 2 + 3 + 4 + 1 + 2 + 3 + 4 + 1 + 2 + 3 + 4 +

Chorus 1:17
F|-----------------------------------------------------------------|
C|-----------------------------------------------------------------|
G|---------------------------------1-1-1---1-1---1---1-1---1-1-1---|
C|-0-------0-0-0-0-0-0-0---0-0-------------------------------------|
   1 + 2 + 3 + 4 + 1 + 2 + 3 + 4 + 1 + 2 + 3 + 4 + 1 + 2 + 3 + 4 +

F|-----------------------------------------------------------------|
C|-----------------------------------------------------------------|
G|-3-3-3---3-3-3-3-3-3-3---3-3-3---0-0-----0-0-0---0---------------|
C|-----------------------------------------------------5---3---2---|
   1 + 2 + 3 + 4 + 1 + 2 + 3 + 4 + 1 + 2 + 3 + 4 + 1 + 2 + 3 + 4 +

F|-----------------------------------------------------------------|
C|-----------------------------------------------------------------|
G|---------------------------------1-1-1-1-1-1-1-1-1-1-1---1-1-1-1-|
C|-0---------0-0-----0-0---0-0-0-----------------------------------|
   1 + 2 + 3 + 4 + 1 + 2 + 3 + 4 + 1 + 2 + 3 + 4 + 1 + 2 + 3 + 4 +

F|-----------------------------------------------------------------|
C|-----------------------------------------------------------------|
G|-3-3-3---3-3---3---3-3---3-3-3---0-0-0---0-0-0---0---0-0---------|
C|-----------------------------------------------------------5-3-2-|
   1 + 2 + 3 + 4 + 1 + 2 + 3 + 4 + 1 + 2 + 3 + 4 + 1 + 2 + 3 + 4 +

Solo 1:42
F|-----------------------------------------------------------------|
C|-----------------------------------------------------------------|
G|---------------------------------1-11-11-1---------11-11-1-110000|
C|-0-00-00-0---------00-00-0-000000--------------------------------|
   1 + 2 + 3 + 4 + 1 + 2 + 3 + 4 + 1 + 2 + 3 + 4 + 1 + 2 + 3 + 4 +

F|-----------------------------------------------------------------|
C|-----------------------------------------------------------------|
G|-3-33-33-3-----------------------4-44-44-4---4-4-----------------|
C|-------------------------------------------------3-3-3-3-2-2-3-3-|
   1 + 2 + 3 + 4 + 1 + 2 + 3 + 4 + 1 + 2 + 3 + 4 + 1 + 2 + 3 + 4 +

F|-----------------------------------------------------------------|
C|-----------------------------------------------------------------|
G|---------------------------------1-1-1---1-1-1-1---1---1-1-0-0---|
C|-0-------0---0-0---0---0-0---------------------------------------|
   1 + 2 + 3 + 4 + 1 + 2 + 3 + 4 + 1 + 2 + 3 + 4 + 1 + 2 + 3 + 4 +

F|-----------------------------------------------------------------|
C|-----------------------------------------------------------------|
G|-3-33-33-3-----------------------4-44-44-4-44-44-----------------|
C|-------------------------------------------------2-22-22-2-2-2-2-|
   1 + 2 + 3 + 4 + 1 + 2 + 3 + 4 + 1 + 2 + 3 + 4 + 1 + 2 + 3 + 4 +

Bridge 2:07
F|-----------------------------------------------------------------|
C|-----------------------------------------------------------------|
G|-1-----1-1-------1-----1-1-1-------------------------------------|
C|---------------------------------5-----5-5---5---5-5-5-5-5-5-5---|
   1 + 2 + 3 + 4 + 1 + 2 + 3 + 4 + 1 + 2 + 3 + 4 + 1 + 2 + 3 + 4 +

F|-----------------------------------------------------------------|
C|-----------------------------------------------------------------|
G|-5-----5-5---5---5-5-5-5-5-5-5---------------------------0---0---|
C|---------------------------------3---3---3---3---3---3-----------|
   1 + 2 + 3 + 4 + 1 + 2 + 3 + 4 + 1 + 2 + 3 + 4 + 1 + 2 + 3 + 4 +

F|-----------------------------------------------------------------|
C|-----------------------------------------------------------------|
G|-1-----1-1---1---1-1-1-1-1-1-3-5---------------------------------|
C|---------------------------------5-----5-5---5---5-5-5-5-5-3-3-3-|
   1 + 2 + 3 + 4 + 1 + 2 + 3 + 4 + 1 + 2 + 3 + 4 + 1 + 2 + 3 + 4 +

F|-----------------------------------------------------------------------|
C|-----------------------------------------------------------------------|
G|-----------------------------------------------------------------------|
C|-0-----0-0---0---0-0-0-0-0-0-0-0-3-----3-3---3-3---3-3-3-7-7-7-7-8-\---|
   1 + 2 + 3 + 4 + 1 + 2 + 3 + 4 + 1 + 2 + 3 + 4 + 1 + 2 + 3 + 4 +

Rest

2:45
F|-----------------------------------------------------------------|
C|-----------------------------------------------------------------|
G|-1---------------------------------------------------------------|
C|-----------------------------------------------------------------|
   1 + 2 + 3 + 4 + 1 + 2 + 3 + 4 + 1 + 2 + 3 + 4 + 1 + 2 + 3 + 4 +

F|-----------------------------------------------------------------|
C|-----------------------------------------------------------------|
G|-----------------------------------------------------------------|
C|-0---------------------------------------------------------------|
   1 + 2 + 3 + 4 + 1 + 2 + 3 + 4 + 1 + 2 + 3 + 4 + 1 + 2 + 3 + 4 +

Breakdown 2:57
F|-----------------------------------------------------------------|
C|-----------------------------------------------------------------|
G|-111111111-----------------------111111111-----------------------|
C|-----------------------------------------------------------------|
   1 + 2 + 3 + 4 + 1 + 2 + 3 + 4 + 1 + 2 + 3 + 4 + 1 + 2 + 3 + 4 +

F|-----------------------------------------------------------------|
C|-----------------------------------------------------------------|
G|-----------------------------------------------------------------|
C|-000000000-----------------------000000000---------0-0-00-0-00---|
   1 + 2 + 3 + 4 + 1 + 2 + 3 + 4 + 1 + 2 + 3 + 4 + 1 + 2 + 3 + 4 +

F|-----------------------------------------------------------------|
C|-----------------------------------------------------------------|
G|-111111111-----------------------111111111-----------------------|
C|-----------------------------------------------------------------|
   1 + 2 + 3 + 4 + 1 + 2 + 3 + 4 + 1 + 2 + 3 + 4 + 1 + 2 + 3 + 4 +

F|-----------------------------------------------------------------|
C|-----------------------------------------------------------------|
G|-----------------------------------------------------------------|
C|-000000000---------0-------0-----000000000---------0-00-01-------|
   1 + 2 + 3 + 4 + 1 + 2 + 3 + 4 + 1 + 2 + 3 + 4 + 1 + 2 + 3 + 4 +

Chorus 3:22
F|-----------------------------------------------------------------|
C|-----------------------------------------------------------------|
G|---------------------------------1-1-1---1-1---1---1-1---1-1-1---|
C|-0---------0-0-----0-0---0-0-0-----------------------------------|
   1 + 2 + 3 + 4 + 1 + 2 + 3 + 4 + 1 + 2 + 3 + 4 + 1 + 2 + 3 + 4 +

F|-----------------------------------------------------------------|
C|-----------------------------------------------------------------|
G|-3-3-3---3-3---3---3-3---3-3-3---0-0-----0-0-0---0---------------|
C|-----------------------------------------------------5---3---2---|
   1 + 2 + 3 + 4 + 1 + 2 + 3 + 4 + 1 + 2 + 3 + 4 + 1 + 2 + 3 + 4 +

F|-----------------------------------------------------------------|
C|-----------------------------------------------------------------|
G|---------------------------------1-1-1---1-1---1---1-1---1-1-1---|
C|-0---------0-0-----0-0---0-0-0-----------------------------------|
   1 + 2 + 3 + 4 + 1 + 2 + 3 + 4 + 1 + 2 + 3 + 4 + 1 + 2 + 3 + 4 +

F|-----------------------------------------------------------------|
C|-----------------------------------------------------------------|
G|-3-3-3---3-3---3---3-3---3-3-3---0-0-0---0-0-0---0---0-0---------|
C|-----------------------------------------------------------5-3-2-|
   1 + 2 + 3 + 4 + 1 + 2 + 3 + 4 + 1 + 2 + 3 + 4 + 1 + 2 + 3 + 4 +

Outro 3:48
F|-----------------------------------------------------------------|
C|-----------------------------------------------------------------|
G|---------------------------------1-------------------------------|
C|-0-00-00-0---------00-00-0-333333--00-00-0-----1---00-00-0-333333|
   1 + 2 + 3 + 4 + 1 + 2 + 3 + 4 + 1 + 2 + 3 + 4 + 1 + 2 + 3 + 4 +

F|---------------------------------------------------------------------|
C|---------------------------------------------------------------------|
G|---------------------------------1---------------0-------------------|
C|---00-00-0---------00-00-0-333333--00-00-------------5---3---2---0---|
   1 + 2 + 3 + 4 + 1 + 2 + 3 + 4 + 1 + 2 + 3 + 4 + 1 + 2 + 3 + 4 +
Tabbed by Dave Vucko

Добавлено: 04.11.2015
Другие материалы по этой песне:
  • Аккорды и текст

Страница создана 04.11.2015
http://primanota.ru/falling-in-reverse/bitter-end-chords.htm
Привет, Гость.
Предлагаем пройти революционный курс по гитаре.
Подарок от PrimaNota.Ru, забирай!