PrimaNota.ru - самый крупный в мире бесплатный архив песенных текстов, аккордов, табулатур и нот


Falling In Reverse - Wait And See - бас-таба, видео

Регистрация Запомнить меня
Войти через:  Facebook Google Twitter Vk Yandex Mail.ru

Falling In Reverse - Wait And See - бас-таба, видео

Печатать
Просмотров: 105
The only part of this song I am really not sure of is the pre chorus
as there is just so much in the mix during it

I only dropped the B string down to A# as it didn't seem necessary to change 
every string

Intro 0:13
E |-----------------------------------------------------------------|
B |-----------------------------------------------------------------|
F#|-----------------------------------------------------------------|
A#|-7--7--777777-77---2-2---2222-222--5-5-555555-55---0-0---0-0-0-0-|
    1 + 2 + 3 + 4 + 1 + 2 + 3 + 4 + 1 + 2 + 3 + 4 + 1 + 2 + 3 + 4 + 

E |-----------------------------------------------------------------|
B |-----------------------------------------------------------------|
F#|-----------------------------------------------------------------|
A#|-7--7--777777-77---2-2---2222-222--5-5-555555-55---0-0---0-------|
    1 + 2 + 3 + 4 + 1 + 2 + 3 + 4 + 1 + 2 + 3 + 4 + 1 + 2 + 3 + 4 + 

Rest

Verse 0:40
E |-----------------------------------------------------------------|
B |-----------------------------------------------------------------|
F#|-----------------------------------------------------------------|
A#|-7-----7-7---7---2-2-2-2-2---2---5-----5-5---5---4-4-4-4-4---4---|
    1 + 2 + 3 + 4 + 1 + 2 + 3 + 4 + 1 + 2 + 3 + 4 + 1 + 2 + 3 + 4 + 

E |-----------------------------------------------------------------|
B |-----------------------------------------------------------------|
F#|-----------------------------------------------------------------|
A#|-7-----7-7---7---2-2-2-2-2-2-2-2-5-----5-5---5---4-4-------------|
    1 + 2 + 3 + 4 + 1 + 2 + 3 + 4 + 1 + 2 + 3 + 4 + 1 + 2 + 3 + 4 + 

Pre Chorus 0:54
(E |-----------------------------------------------------------------|)
(B |-----------------------------------------------------------------|)
(F#|---------4---5---------------------------4---5-------------------|) Maybe?
(A#|-2-3---2---0---1---0-2-3-2-3-2-3-2-3-5-2---0---1---0-2-3---------|)
     1 + 2 + 3 + 4 + 1 + 2 + 3 + 4 + 1 + 2 + 3 + 4 + 1 + 2 + 3 + 4 + 

E |-----------------------------------------------------------------|
B |-----------------------------------------------------------------|
F#|---------4---5---------------------------4---5-------------------|
A#|-1-2---1---0---1---1-2-4-1-2-1-2-1-4-5-1---0---1---1-2-4---------|
    1 + 2 + 3 + 4 + 1 + 2 + 3 + 4 + 1 + 2 + 3 + 4 + 1 + 2 + 3 + 4 + 

E |-----------------------------------------------------------------|
B |-----------------------------------------------------------------|
F#|-------------55--------------------------------------------------|
A#|-1--14-1-5-1---1---1-2-4-11114-1---------------------------------|
    1 + 2 + 3 + 4 + 1 + 2 + 3 + 4 + 1 + 2 + 3 + 4 + 1 + 2 + 3 + 4 + 

Chorus 1:08
E |-----------------------------------------------------------------|
B |-----------------------------------------------------------------|
F#|-------------------------------------------------4-4-4-4-4-4-4-4-|
A#|-7-----7-7---7-7-\-2-2-2-2-2-2-2-5-5-5-5-5---5-5-----------------|
    1 + 2 + 3 + 4 + 1 + 2 + 3 + 4 + 1 + 2 + 3 + 4 + 1 + 2 + 3 + 4 + 

E |-----------------------------------------------------------------|
B |-----------------------------------------------------------------|
F#|-----------------------------------------------------------------|
A#|-7---7-7-7-7-7-7-\-2-2-2-2-2-2-2-5--5--5-5-5-5-5---0-0-0-0-0-0-0-|
    1 + 2 + 3 + 4 + 1 + 2 + 3 + 4 + 1 + 2 + 3 + 4 + 1 + 2 + 3 + 4 + 

E |-----------------------------------------------------------------|
B |-----------------------------------------------------------------|
F#|-------------------------------------------------4-4-4-4-4-4-4-4-|
A#|-7-7-7-7-7-7-7-7-\-2-2-2-2-2-2-2-5-5-5-5-5-5-5-5-----------------|
    1 + 2 + 3 + 4 + 1 + 2 + 3 + 4 + 1 + 2 + 3 + 4 + 1 + 2 + 3 + 4 + 

E |-----------------------------------------------------------------|
B |-----------------------------------------------------------------|
F#|-----------------------------------------------------------------|
A#|-7---7-7-7-7-7-7-\-2-2-2-2-2-2-2-5--5--5-5-5-5-5---0-0-0---0-0-0-|
    1 + 2 + 3 + 4 + 1 + 2 + 3 + 4 + 1 + 2 + 3 + 4 + 1 + 2 + 3 + 4 + 

Interlude 1:35
E |-----------------------------------------------------------------|
B |-----------------------------------------------------------------|
F#|-----------------------------------------------------------------|
A#|-7--7--777777-77---2-2---2222-222--5-5-555555-55---0-0---0-------|
    1 + 2 + 3 + 4 + 1 + 2 + 3 + 4 + 1 + 2 + 3 + 4 + 1 + 2 + 3 + 4 + 

Rest

Verse 1:56
E |-----------------------------------------------------------------|
B |-----------------------------------------------------------------|
F#|-----------------------------------------------------------------|
A#|-7-----7-7---7---2-2-2-2-2---2---5-----5-5---5---4-4-4-4-4---4---|
    1 + 2 + 3 + 4 + 1 + 2 + 3 + 4 + 1 + 2 + 3 + 4 + 1 + 2 + 3 + 4 + 

E |-----------------------------------------------------------------|
B |-----------------------------------------------------------------|
F#|-----------------------------------------------------------------|
A#|-7-----7-7---7---2-2-2-2-2-2-2-2-5-----5-5---5---4-4-4-4-4-------|
    1 + 2 + 3 + 4 + 1 + 2 + 3 + 4 + 1 + 2 + 3 + 4 + 1 + 2 + 3 + 4 + 

Pre Chorus 2:09
(E |-----------------------------------------------------------------|)
(B |-----------------------------------------------------------------|)
(F#|---------4---5---------------------------4---5-------------------|) Maybe?
(A#|-2-3---2---0---1---0-2-3-2-3-2-3-2-3-5-2---0---1---0-2-3---------|)
     1 + 2 + 3 + 4 + 1 + 2 + 3 + 4 + 1 + 2 + 3 + 4 + 1 + 2 + 3 + 4 + 

E |-----------------------------------------------------------------|
B |-----------------------------------------------------------------|
F#|---------4---5---------------------------4---5-------------------|
A#|-1-2---1---0---1---1-2-4-1-2-1-2-1-4-5-1---0---1---1-2-4---------|
    1 + 2 + 3 + 4 + 1 + 2 + 3 + 4 + 1 + 2 + 3 + 4 + 1 + 2 + 3 + 4 + 

E |-----------------------------------------------------------------|
B |-----------------------------------------------------------------|
F#|-------------55--------------------------4---5-------------------|
A#|-1--14-1-5-1---1---1-2-4-11114-1-1-4-5-1---0---1-1--1--1-13\-----|
    1 + 2 + 3 + 4 + 1 + 2 + 3 + 4 + 1 + 2 + 3 + 4 + 1 + 2 + 3 + 4 + 

Chorus  2:24
E |-----------------------------------------------------------------|
B |-----------------------------------------------------------------|
F#|-------------------------------------------------4-4-4-4-4-4-4-4-|
A#|-7-----7-7---7-7-\-2-2-2-2-2-2-2-5-5-5-5-5---5-5-----------------|
    1 + 2 + 3 + 4 + 1 + 2 + 3 + 4 + 1 + 2 + 3 + 4 + 1 + 2 + 3 + 4 + 

E |-----------------------------------------------------------------|
B |-----------------------------------------------------------------|
F#|-----------------------------------------------------------------|
A#|-7---7-7-7-7-7-7-\-2-2-2-2-2-2-2-5--5--5-5-5-5-5---0-0-0-0-0-0-0-|
    1 + 2 + 3 + 4 + 1 + 2 + 3 + 4 + 1 + 2 + 3 + 4 + 1 + 2 + 3 + 4 + 

E |-----------------------------------------------------------------|
B |-----------------------------------------------------------------|
F#|-------------------------------------------------4-4-4-4-4-4-4-4-|
A#|-7-7-7-7-7-7-7-7-\-2-2-2-2-2-2-2-5-5-5-5-5-5-5-5-----------------|
    1 + 2 + 3 + 4 + 1 + 2 + 3 + 4 + 1 + 2 + 3 + 4 + 1 + 2 + 3 + 4 + 

E |-----------------------------------------------------------------|
B |-----------------------------------------------------------------|
F#|-----------------------------------------------------------------|
A#|-7---7-7-7-7-7-7-\-2-2-2-2-2-2-2-5--5--5-5-5-5-5---0-0-0---0-0-0-|
    1 + 2 + 3 + 4 + 1 + 2 + 3 + 4 + 1 + 2 + 3 + 4 + 1 + 2 + 3 + 4 + 

Bridge 2:51
E |-----------------------------------------------------------------|
B |-----------------------------------------------------------------|
F#|-2--2--222222-22---4-4---4444-444--------------------------------|
A#|-----------------------------------7-7-777777-77---5-5---5-5-5-5-|
    1 + 2 + 3 + 4 + 1 + 2 + 3 + 4 + 1 + 2 + 3 + 4 + 1 + 2 + 3 + 4 + 

E |-----------------------------------------------------------------|
B |-----------------------------------------------------------------|
F#|-2--2--222222-22---4-4---4444-444--1-1-111111-11---5-5---5-5-5-5-|
A#|-----------------------------------------------------------------|
    1 + 2 + 3 + 4 + 1 + 2 + 3 + 4 + 1 + 2 + 3 + 4 + 1 + 2 + 3 + 4 + 

Solo 3:04
E |-----------------------------------------------------------------|
B |-----------------------------------------------------------------|
F#|-----------------------------------2-2-2-2-2-2-2---------6-4-2-1-|
A#|-7-----7-7-7-7-7---2-2-2---2-2-2-------------------5-5-5---------|
    1 + 2 + 3 + 4 + 1 + 2 + 3 + 4 + 1 + 2 + 3 + 4 + 1 + 2 + 3 + 4 + 

E |-----------------------------------------------------------------|
B |-----------------------------------------------------------------|
F#|----------------------------------------------------4--4-6-4-2-1-|
A#|-7-7-7-7-7-7-7-7---2-2-----2-2---5--5--5-5-5-5-5-5---------------|
    1 + 2 + 3 + 4 + 1 + 2 + 3 + 4 + 1 + 2 + 3 + 4 + 1 + 2 + 3 + 4 + 

E |-----------------------------------------------------------------|
B |-----------------------------------------------------------------|
F#|-----------------------------------2-2-2-2-2-2-2---------6-4-2-1-|
A#|-7-----7-7-7-7-7---2-2-2---2-2-2-------------------5-5-5---------|
    1 + 2 + 3 + 4 + 1 + 2 + 3 + 4 + 1 + 2 + 3 + 4 + 1 + 2 + 3 + 4 + 

E |-----------------------------------------------------------------------|
B |-----------------------------------------------------------------------|
F#|----------------------------------------------------4--4-6-4-2-1-------|
A#|-7-7-7---7-7-7-7---2-2---2-2-2-2-5--5--5-5-5-5-5-5---------------7-\---|
    1 + 2 + 3 + 4 + 1 + 2 + 3 + 4 + 1 + 2 + 3 + 4 + 1 + 2 + 3 + 4 + 

Rest

E |---------------------|
B |---------------------|
F#|---------------------|
A#|---0-----------------|
    4 + 1 + 2 + 3 + 4 + 

Chorus 3:46
E |-----------------------------------------------------------------|
B |-----------------------------------------------------------------|
F#|-------------------------------------------------4-4-4-4-4-4-4-4-|
A#|-7-----7-7---7-7-\-2-2-2-2-2-2-2-5-5-5-5-5---5-5-----------------|
    1 + 2 + 3 + 4 + 1 + 2 + 3 + 4 + 1 + 2 + 3 + 4 + 1 + 2 + 3 + 4 + 

E |-----------------------------------------------------------------|
B |-----------------------------------------------------------------|
F#|-----------------------------------------------------------------|
A#|-7---7-7-7-7-7-7-\-2-2-2-2-2-2-2-5--5--5-5-5-5-5---0-0-0-0-0-0-0-|
    1 + 2 + 3 + 4 + 1 + 2 + 3 + 4 + 1 + 2 + 3 + 4 + 1 + 2 + 3 + 4 + 

E |-----------------------------------------------------------------|
B |-----------------------------------------------------------------|
F#|-------------------------------------------------4-4-4-4-4-4-4-4-|
A#|-7-7-7-7-7-7-7-7-\-2-2-2-2-2-2-2-5-5-5-5-5-5-5-5-----------------|
    1 + 2 + 3 + 4 + 1 + 2 + 3 + 4 + 1 + 2 + 3 + 4 + 1 + 2 + 3 + 4 + 

E |-----------------------------------------------------------------|
B |-----------------------------------------------------------------|
F#|-----------------------------------------------------------------|
A#|-7---7-7-7-7-7-7-\-2-2-2-2-2-2-2-5--5--5-5-5-5-5---0-0-0---0-0-0-|
    1 + 2 + 3 + 4 + 1 + 2 + 3 + 4 + 1 + 2 + 3 + 4 + 1 + 2 + 3 + 4 + 

Outro 4:13
E |-------------------------------------------------------------------|
B |o-----------------------------------------------------------------o|
F#|o-----------------------------------------------------------------o|
A#|--7--7--777777-77---2-2---2222-222--5-5-555555-55---0-0---0-0-0-0--|
     1 + 2 + 3 + 4 + 1 + 2 + 3 + 4 + 1 + 2 + 3 + 4 + 1 + 2 + 3 + 4 + 
Tabbed by Dave Vucko

Добавлено: 04.11.2015
Другие материалы по этой песне:
  • Аккорды и текст

Страница создана 04.11.2015
http://primanota.ru/falling-in-reverse/wait-and-see-chords.htm
Привет, Гость.
Предлагаем пройти революционный курс по гитаре.
Подарок от PrimaNota.Ru, забирай!