PrimaNota.ru - самый крупный в мире бесплатный архив песенных текстов, аккордов, табулатур и нот


Fall Out Boy - This Aint A Scene Its An Arms Race Live - таба, видео

Регистрация Запомнить меня
Войти через:  Facebook Google Twitter Vk Yandex Mail.ru

Fall Out Boy - This Aint A Scene Its An Arms Race Live - таба, видео

Печатать
Просмотров: 357
Уроки эстрадного вокала в Санкт-Петербурге
Fall Out Boy
This Ain't a Scene Live
Standard Tuning

Guitar 1- Patrick
Guitar 2-Joe

Details: Um...Just a lot of distortion and Joe's tone is really twangy/treblely.

0:00-0:16-synth

Verse:
Guitar 1:
|-----------------|-----------------|---------------|---------------|
|-----------------|-----------------|---------------|---------------|
|-----------------|-----------------|---------------|---------------|
|-----------------|-----------------|---------------|---------------|
|-0-0-0-0-0-0-0-0-|-0-0-2-2-3-3-3/5-|---------------|---2-2-3-3-3/5-|
|-----------------|-----------------|-4-4-4-4-4-4-4-|-44------------|x2
PM* * * * * * * *   * *               * * * * * * *   **
|Guitar 2
|-----------------|-----------------|---------------|---------------|
|-----------------|-----------------|---------------|---------------|
|-5-7--9-7-5/7--9-|-5-7--9-7-5/7--9-|-4-5-7-7-4/5-7-|-4-5-7-7-4/5-7-|
|-7-9-10-9-7/9-10-|-7-9-10-9-7/9-10-|-6-7-9-5-6/7-9-|-6-7-9-5-6/7-9-|
|-----------------|-----------------|---------------|---------------|
|-----------------|-----------------|---------------|---------------|x2

Pre-Chorus
Guitar 1:
|-----------------|-----------------|---------------|---------------|
|-----------------|-----------------|---------------|---------------|
|-----------------|-----------------|---------------|---------------|
|-----------------|-----------------|---------------|---------------|
|-0-0-0-0-0-0-0-0-|-0-0-2-2-3-3-3/5-|---------------|-002-2-3-3-3/5-|
|-----------------|-0-0-------------|-4-4-4-4-4-4-4-|-00------------|
PM* * * * * * * *                     * * * * * * *
|Guitar 2
|-----------------|-----------------|---------------|---------------|
|-----------------|-----------------|---------------|---------------|
|-5-7--9-7-5/7--9-|-5-7--9-7-5/7--9-|-4-5-7-7-4/5-7-|-4-5-7-7-4/5-7-|
|-7-9-10-9-7/9-10-|-7-9-10-9-7/9-10-|-6-7-9-5-6/7-9-|-6-7-9-5-6/7-9-|
|-----------------|-----------------|---------------|---------------|
|-----------------|-----------------|---------------|---------------|

Guitar 1:
|-----------------|-----------------|---------------|---------------|
|-----------------|-----------------|---------------|---------------|
|-----------------|-----------------|---------------|---------------|
|-----------------|-----------------|---------------|---------------|
|-0-0-0-0-0-0-0-0-|-0-0-2-2-3-3-3/5-|---------------|---------------|
|-----------------|-0-0-------------|-4-4-4-4~~~----|---------------|
PM* * * * * * * *                     * *
|Guitar 2
|-----------------|-----------------|---------------|---------------|
|-----------------|-----------------|---------------|---------------|
|-5-7--9-7-5/7--9-|-5-7--9-7-5/7--9-|-4-5-7-7~------|-9-9-9-9-9-9-9-|
|-7-9-10-9-7/9-10-|-7-9-10-9-7/9-10-|-6-7-9-5~------|-X-X-X-X-X-X-X-|
|-----------------|-----------------|---------------|-7-7-7-7-7-7-7-|
|-----------------|-----------------|---------------|---------------|

Chorus:
Guitar 1:
|-----------------|-----------------|-----------------|-----------------|
|-----------------|-----------------|-----------------|-----------------|
|-----------------|-----------------|-5-5-5-5-5-5-5-5-|-----------------|
|-7-7-7-7-7-7-7-7-|-3-3-3-3-3-3-3-3-|-5-5-5-5-5-5-5-5-|-6-6-6-6-6-6-6-6-|
|-7-7-7-7-7-7-7-7-|-3-3-3-3-3-3-3-3-|-3-3-3-3-3-3-3-3-|-7-7-7-7-7-7-7-7-|
|-5-5-5-5-5-5-5-5-|-1-1-1-1-1-1-1-1-|-----------------|-4-4-4-4-4-4-4-4-|
Guitar 2:
|-----------------|------------------|----------------|-----------------|
|-----------------|------------------|----------------|-----------------|
|-9-9-9-9-9-9-9-9-|-1010101010101010-|1212121212121212|1313131313131313-|
|-x-x-x-x-x-x-x-x-|-x-x-x-x-x-x-x----|x-x-x-x-x-x-x-x-|-x-x-x-x--x-x-x--|
|-7-7-7-7-7-7-7-7-|-8-8-8-8-8-8-8-8--|1010101010101010|1111111111111111-|
|-----------------|------------------|----------------|-----------------|x2

Inlerlude:
Guitars 1 & 2:
|-----------------|
|-----------------|
|-5-7--9-7-5/7--9~|
|-7-9-10-9-7/9-10~|
|-----------------|
|-----------------|

Repeat Verse

Pre Chorus (a lil different the 2nd time)
Guitar 1:
|-----------------|-----------------|---------------|---------------|
|-----------------|-----------------|---------------|---------------|
|-----------------|-----------------|---------------|---------------|
|-----------------|-----------------|---------------|---------------|
|-0-0-0-0-0-0-0-0-|-0-0-2-2-3-3-3/5-|---------------|-002-2-3-3-3/5-|
|-----------------|-0-0-------------|-4-4-4-4-4-4-4-|-00------------|
PM* * * * * * * *                     * * * * * * *
|Guitar 2
|-----------------|-----------------|---------------|---------------|
|-----------------|-----------------|---------------|---------------|
|-5-7--9-7-5/7--9-|-5-7--9-7-5/7--9-|-4-5-7-7-4/5-7-|-4-5-7-7-4/5-7-|
|-7-9-10-9-7/9-10-|-7-9-10-9-7/9-10-|-6-7-9-5-6/7-9-|-6-7-9-5-6/7-9-|
|-----------------|-----------------|---------------|---------------|
|-----------------|-----------------|---------------|---------------|

Guitar 1:
|-----------------|-----------------|---------------|------------|
|-----------------|-----------------|---------------|------------|
|-----------------|-----------------|---------------|------------|
|-----------------|-----------------|---------------|------------|
|-0-0-0-0-0-0-0-0-|-0-0-2-2-3-3-3/5-|---------------|-0-0-2-3-5--|
|-----------------|-0-0-------------|-4-4-4-4~~~----|------------|
PM* * * * * * * *                     * *
|Guitar 2
|-----------------|-----------------|---------------|------------|
|-----------------|-----------------|---------------|------------|
|-5-7--9-7-5/7--9-|-5-7--9-7-5/7--9-|-4-5-7-7~------|------------|
|-7-9-10-9-7/9-10-|-7-9-10-9-7/9-10-|-6-7-9-5~------|------------|
|-----------------|-----------------|---------------|------------|
|-----------------|-----------------|---------------|------------|

Repeat Chorus

Bridge:
Guitar 1
|----------------------------------|-----------------|
|----------------------------------|-----------------|
|-10101010101010101010101010101010-|-5-7--9-7-5/7--9-|
|-x-x-x-x-x-x-x-x-x-x-x-x-x-x-x-x--|-7-9-10-9-7/9-10-|
|-8-8-8-8-8-8-8-8-8-8-8-8-8-8-8-8--|-----------------|
|----------------------------------|-----------------|
Guitar 2:
|----------------------------------|-----------------|
|----------------------------------|-----------------|
|-7-7-7-7-7-7-7-7-7-7-7-7-7-7-7-7--|-----------------|
|-x-x-x-x-x-x-x-x-x-x-x-x-x-x-x-x--|-7-7-7-7-7-7-7-7-|
|-5-5-5-5-5-5-5-5-5-5-5-5-5-5-5-5--|-7-7-7-7-7-7-7-7-|
|----------------------------------|-5-5-5-5-5-5-5-5-|

Guitar 1
|----------------------------------|-----------------|
|----------------------------------|-----------------|
|-7-7-7-7-7-7-7-7-7-7-7-7-7-7-7-7--|-5-7--9-7-5/7--9-|
|-x-x-x-x-x-x-x-x-x-x-x-x-x-x-x-x--|-7-9-10-9-7/9-10-|
|-5-5-5-5-5-5-5-5-5-5-5-5-5-5-5-5--|-----------------|
|----------------------------------|-----------------|
Guitar 2
|----------------------------------|-----------------|
|----------------------------------|-----------------|
|-9-9-9-9-9-9-9-9-9-9-9-9-9-9-9-9--|-----------------|
|-x-x-x-x-x-x-x-x-x-x-x-x-x-x-x-x--|-77-9-9-1010-1212|
|-7-7-7-7-7-7-7-7-7-7-7-7-7-7-7-7--|-77-9-9-1010-1212|
|----------------------------------|-55-7-7-8-8--1010|

Guitar 1:
|----------------------------------|-----------------|
|----------------------------------|-----------------|
|1010101010101010101010101010101010|-5-7--9-7-5/7--9-|
|-x-x-x-x-x-x-x-x-x-x-x-x-x-x-x-x-x|-7-9-10-9-7/9-10-|
|-8-8-8-8-8-8-8-8-8-8-8-8-8-8-8-8-8|-----------------|
|----------------------------------|-----------------|
Guitar 2 (Guitar 2 cant be heard very well here, it sounds like this)
|----------------------------------|-----------------|
|13-13-13-12-12-12-10-10-10-12-12-12-----------------|
|----------------------------------|-----------------|
|----------------------------------|-7-7-7-7-7-7-7-7-|
|----------------------------------|-7-7-7-7-7-7-7-7-|
|----------------------------------|-5-5-5-5-5-5-5-5-|

Guitar 1:
|--------|-------------|
|--------|-------------|
|--------|/14-14-14-14-|
|--------|/-x--x-x--x--|
|--------|/12-12-12-12-|
|--------|-------------|
Guitar 2:
|--------|-------------|
|--------|-------------|
|-7~~~/9-|-------------|
|-x----x-|-------------|
|-5~~~/7-|-------------|
|--------|-------------|

"All the boys on the dance floor who didnt love, and all the girls who couldnt move fast 
sing, until your lungs give out"

Guitar 1 only:
|-----------------------|
|-----------------------|
|-----------------------|
|-----------------------|
|-3/5V~~~~-2-3-5-6-5V~~-|
|-----------------------|

Guitar 1:
|-----------------|-----------------|---------------|---------------|
|-----------------|-----------------|---------------|---------------|
|-----------------|-----------------|---------------|---------------|
|-----------------|-----------------|---------------|---------------|
|-0-0-0-0-0-0-0-0-|-0-0-2-2-3-3-3/5-|---------------|-002-2-3-3-3/5-|
|-----------------|-0-0-------------|-4-4-4-4-4-4-4-|-00------------|
PM* * * * * * * *                     * * * * * * *
|Guitar 2
|-----------------|-----------------|---------------|---------------|
|-----------------|-----------------|---------------|---------------|
|-5-7--9-7-5/7--9-|-5-7--9-7-5/7--9-|-4-5-7-7-4/5-7-|-4-5-7-7-4/5-7-|
|-7-9-10-9-7/9-10-|-7-9-10-9-7/9-10-|-6-7-9-5-6/7-9-|-6-7-9-5-6/7-9-|
|-----------------|-----------------|---------------|---------------|
|-----------------|-----------------|---------------|---------------|x2

Then Nothing:
|----------|---------------------------|
|----------|---------------------------|
|----------|---------------------------|
|--7---7\--|-\\\\\\\\\\\\\\\\\\\\\\\\--|
|--7---7\--|-\\\\\\\\\\\\\\\\\\\\\\\\\-|
|--5---5\--|-------pick slide----------|
 (God Damn)

Repeat Chorus

Ending:
Guitar 1:-the ending im not too sure about, in the album verison just play an Em (022xxx)
|-----------------|----|
|-----------------|----|
|-9-9-9-9-9-9-9-9-|----|
|-9-9-9-9-9-9-9-9-|-7\-|
|-7-7-7-7-7-7-7-7-|-7\-|
|-----------------|-5\-|
Guitar 2
|-----------------|----|
|-----------------|----|
|-9-8-9-8-9-8-9-8-|----|
|-x-x-x-x-x-x-x-x-|-7\-|
|-7-6-7-6-7-6-7-6-|-7\-|
|-----------------|-5\-|
End
Добавлено: 10.03.2012
Другие материалы по этой песне:
  • Аккорды и текст

Страница создана 10.03.2012
http://primanota.ru/fall-out-boy/this-aint-a-scene-its-an-arms-race-live-chords.htm
Привет, Гость.
Предлагаем пройти революционный курс по гитаре.
Подарок от PrimaNota.Ru, забирай!