PrimaNota.ru - самый крупный в мире бесплатный архив песенных текстов, аккордов, табулатур и нот


Fall Out Boy - We Dont Take Hits We Write Them - текст песни, таба, видео

Регистрация Запомнить меня
Войти через:  Facebook Google Twitter Vk Yandex Mail.ru

Fall Out Boy - We Dont Take Hits We Write Them - текст песни, таба, видео

Печатать
Просмотров: 158
Уроки эстрадного вокала в Санкт-Петербурге
We Don't Take Hits, We Write Them | Fall Out Boy

Intro
Guitar 1

E -------------------------------------------------------------------|
B -------------------------------------------------------------------|
G -------------------------------------------------------------------|
D -------------------------------------------------------------------|
A --5-7-9-9---5-5-7-9-9---5-5-4-5---9-9-7-5----[x2]------------------|
D -------------------------------------------------------------------|

Guitar 2

E -------------------------------------------------------------------|
B -------------------------------------------------------------------|
G -------------------------------------------------------------------|
D --0000----9999----4-4-5----999-77-5--------------------------------|
A --0000----9999----4-4-5----999-77-5---[x2]-------------------------|
D --0000----9999----4-4-5----999-77-5--------------------------------|

Verse
Guitars 1 & 2

E -------------------------------------------------------------------|
B -------------------------------------------------------------------|
G -------------------------------------------------------------------|
D -------------------------------------------------------------------|
A –------9--[x4]-|-–------9--------9--------10-------9--|-------9-[x2|
D -12-12---------|--12-12----12-12----12-12----12-12----|-12-12------|

  [1st Ending]                        [2nd Ending]
E ----------------------------------|--------------------------------|
B ----------------------------------|--------------------------------|
G ----------------------------------|--------------------------------|
D ----------------------------------|--5-----------------------------|
A -----------12--14-14-12-12--------|--5-----------------------------|
D -12-12-12-------------------------|--5-----------------------------|

Bridge
Guitars 1 & 2

E -------------------------------------------------------------------|
B -------------------------------------------------------------------|
G -------------------------------------------------------------------|
D –5555555--7777--99--77--5--------------10------12-------10---------|
A –5555555--7777--99--77--5--[x4]----9-9-----9-9------9-9-----[x2]---|
D –5555555--7777--99--77--5------------------------------------------|



Chorus
Guitars 1 & 2

E -------------------------------------------------------------------|
B -------------------------------------------------------------------|
G -------------------------------------------------------------------|
D -000--5555--7777--99-77--0-----------------------------------------|
A -000--5555--7777--99-77--0---[x4]----------------------------------|
D -000--5555--7777--99-77--0-----------------------------------------|

Ending
Guitar 1


E -------------------------------------------------------------------|
B -------------------------------------------------------------------|
G -------------------------------------------------------------------|
D --------7----------------------------------------------------------|
A ---4-5-------------------------------------------------------------|
D -------------------------------------------------------------------|

The song goes like this:

-Intro

-Verse (twice, with 1st and 2nd ending)

-Bridge

-Chorus

-Intro 

-Verse (twice, with 1st and 2nd ending)

-Bridge

-Chorus

                  D -0--|
-Chorus (with open A -0--| chord throughout)
                  D -0--|

-Bridge chords

-Ending

Lyrics: They're really hard to understand but these sound about right.

And you lock the house to keep your secret from coming out. 
I wont, No. I'm sorry because you're old news. 

And my life is holding our heads to this gun. 
You and your new boy think you can come in and keep me off, but you're wrong. 

I find myself on the street out in front of your house, you can kiss safe thoughts goodbye. 
I'm coming up to break your heart. 
You're sleeping with the light on like you're dying to be found out. 

And you lock the house… x 5

This is my first tab so feel free to point out any mistakes. :)
Добавлено: 07.04.2012
Другие материалы по этой песне:
  • Аккорды и текст

Страница создана 07.04.2012
http://primanota.ru/fall-out-boy/we-dont-take-hits-we-write-them-chords.htm
Привет, Гость.
Предлагаем пройти революционный курс по гитаре.
Подарок от PrimaNota.Ru, забирай!