PrimaNota.ru - самый крупный в мире бесплатный архив песенных текстов, аккордов, табулатур и нот


Fall Out Boy - Snitches And Talkers Get Stitches And Walkers - текст песни, таба, бас-таба, видео

Регистрация Запомнить меня
Войти через:  Facebook Google Twitter Vk Yandex Mail.ru

Fall Out Boy - Snitches And Talkers Get Stitches And Walkers - текст песни, таба, бас-таба, видео

Печатать
Просмотров: 510
Fall Out Boy
Snitches and Talkers Get Stitches and Walkers
(From Under The Corktree Limited Edition)


Ok, so I love this song but saw that the only tab for it was mostly wrong. But it did 
me get started. So… I tabbed it myself so that my band could play it with perfect 
and now we do ;)

Guitar 1: Patrick Stump
Guitar 2: Joe Trohman

INTRO

Both guitars
e)-------------------|
B)-------------------|
G)-------------------|
D)-2222222222222222--|
A)-2222222222222222--|
E)-0000000000000000--|

00:04

Guitar 1
e)-----------------------------------------------------|
B)-----------------------------------------------------|
G)-4-4-3-3-3-3-3-3-3-4---4-4-3-3-3-3-3-3-3-0~----------|
D)--------------------2-2------------------------------|
A)-----------------------------------------------------|
E)-----------------------------------------------------|

Guitar 2
e)-------------------|
B)-------------------|
G)-------------------|
D)-2222222222222222--|
A)-2222222222222222--|
E)-0000000000000000--|


VERSE

Both guitars
e)-------------------------------------------------------------|
B)-------------------------------------------------------------|
G)-------------------------------------------------------------|
D)-22222222--22222222--22222222---10--10/9--10/9--10/9--10/9---| X2
A)-22222222--22222222--22222222---10--10/9--10/9--10/9--10/9---|
E)-00000000--00000000--00000000---8---8-/7--8-/7--8-/7--8-/7---|
     ......    ......    ......

PRE-CHORUS

Both guitars
e)--------------------------------------------------------------------|
B)--------------------------------------------------------------------|
G)--79-99999999---79-99999999---79-99999999---------------------------|
D)7979-99999999—7979-99999999—7979-99999999-7910-10/9--10/9--10/9-10/9|
A)7957-77777777—7957-77777777—7957-77777777-798--10/9—-10/9—-10/9-10/9|
E)57------------57------------57------------578--8-/7--8-/7--8-/7-8-/7|
        ........      ........      ........

CHORUS

Guitar 1
e)------------------------------------------------|
B)------------------------------------------------|
G)-99999999---------------------------------------|
D)-99999999-1010101010101010-77777777-99999999----|
A)-77777777-1010101010101010-77777777-99999999----|
E)----------8-8-8-8-8-8-8-8--55555555-77777777----|

e)-----------------------------------------------------|
B)-----------------------------------------------------|
G)-99999999--------------------------------------------|
D)-99999999-1010101010101010-77777777-10/9-10/9-10/9---|
A)-77777777-1010101010101010-77777777-10/9-10/9-10/9---|
E)----------8-8-8-8-8-8-8-8--55555555-8-/7-8-/7-8-/7---|


Guitar 2
e)------------------------------------------------|
B)-12-12-----10-10-----^8---8/7---8/7---8/7---8/7-|
G)-------9-9-------7-7------5/4---5/4---5/4---5/4-| X3
D)------------------------------------------------|
A)------------------------------------------------|
E)------------------------------------------------|


00:54

Both guitars
e)------------------------------------------------|
B)------------------------------------------------|
G)---79x---79-x---79-x----------------------------|
D)-7979x—7979-x—7979-x-7910-10/9--10/9--10/9—10/9-|
A)-7957x—7957-x—7957-x-798--10/9—-10/9—-10/9-10/9-|
E)-57----57-----57-----578--8-/7--8-/7--8-/7-8-/7-|


VERSE 2

Guitar 1
e)---------------------------------------------------|
B)---------------------------------------------------|
G)---------------------------------------------------|
D)-2-2-2-2-2-2-2-2--2-2-2-2-2-2-2-2--2-2-2-2-2-2-2-2-|
A)-2-2-2-2-2-2-2-2--2-2-2-2-2-2-2-2--2-2-2-2-2-2-2-2-|
E)-0-0-0-0-0-0-0-0--0-0-0-0-0-0-0-0--0-0-0-0-0-0-0-0-|

Guitar 2
e)---------------------------------------------------|
B)---------------------------------------------------|
G)---------------------------------------------------|
D)-22---------------22--------------22---------------|
A)-22---------------22--------------22---------------|
E)-00---------------00--------------00---------------|

01:11

Both guitars
e)-----------------------------------------------------|
B)-----------------------------------------------------|
G)-----------------------------------------------------|
D)-10-10/9--10/9--10/9---------------------------------|
A)-10-10/9--10/9--10/9---------------------------------|
E)-8--8-/7--8-/7--8-/7---------------------------------|

PRE-CHORUS

Both guitars
e)-----------------------------------------------------------------|
B)-----------------------------------------------------------------|
G)---79-99999999---79-99999999---79-99999999-----------------------|
D)-7979-99999999—7979-99999999—7979-99999999-7910-10/9--10/9--10/9-|
A)-7957-77777777—7957-77777777—7957-77777777-798--10/9—-10/9—-10/9-|
E)-57------------57------------57------------578--8-/7--8-/7--8-/7-|
        ........      ........      ........

CHORUS

Guitar 1
e)------------------------------------------------|
B)------------------------------------------------|
G)-99999999---------------------------------------|
D)-99999999-1010101010101010-77777777-99999999----|
A)-77777777-1010101010101010-77777777-99999999----|
E)----------8-8-8-8-8-8-8-8--55555555-77777777----|

e)--------------------------------------------------------|
B)--------------------------------------------------------|
G)-99999999-----------------------------------------------|
D)-99999999-1010101010101010-77777777-10/9-10/9-10/9-10/9~|
A)-77777777-1010101010101010-77777777-10/9-10/9-10/9-10/9-|
E)----------8-8-8-8-8-8-8-8--55555555-8-/7-8-/7-8-/7-8-/7-|


Guitar 2
e)------------------------------------------------|
B)-12-12-----10-10-----^8---8/7---8/7---8/7---8/7-|
G)-------9-9-------7-7------5/4---5/4---5/4---5/4-| X3
D)------------------------------------------------|
A)------------------------------------------------|
E)------------------------------------------------|


BRIDGE

Guitar 1
e)------------------------------------------------|
B)------------------------------------------------|
G)-99999999---------------------------------------|
D)-99999999-1010101010101010-77777777-99999999----|
A)-77777777-1010101010101010-77777777-99999999----|
E)----------8-8-8-8-8-8-8-8--55555555-77777777----|


01:51

Guitar 1
e)----------------------------------------------------|
B)----------------------------------------------------|
G)-9-9-9-11-12-11-9999—-9-9-9-11-12-11-9999-—99999999-|
D)-x-x-x-x--x--x--xxxx--x-x-x-x--x--x--xxxx—-xxxxxxxx-|
A)-7-7-7-9--10-9--7777--7-7-7-9--10-9-—7777-—77777777-|
E)----------------------------------------------------|
                                                        X2
e)----------------------------------------------------|
B)----------------------------------------------------|
G)-888-999-111111-161616~-----------------------------|
D)-xxx-xxx-x-x-x—-x-x-x-------------------------------|
A)-666-666-9-9-9--141414------------------------------|
E)----------------------------------------------------|


Guitar 2
e)------------------------------------------------|
B)------------------------------------------------|
G)-99999999---------------------------------------| X1
D)-99999999-1010101010101010-77777777-99999999----|
A)-77777777-1010101010101010-77777777-99999999----|
E)----------8-8-8-8-8-8-8-8--55555555-77777777----|


02:10

Guitar2
e)----------------------------------------------------|
B)----------------------------------------------------|
G)----------------------------------------------------|
D)-2~-3~-2~-3~----------------------------------------|
A)-2--3--2--3-----------------------------------------|
E)-0--1--0--1-----------------------------------------|

CHORUS

Guitar 1
e)------------------------------------------------|
B)------------------------------------------------|
G)-99999999---------------------------------------|
D)-99999999-1010101010101010-77777777-99999999----|
A)-77777777-1010101010101010-77777777-99999999----|
E)----------8-8-8-8-8-8-8-8--55555555-77777777----|

e)-----------------------------------------------------|
B)-----------------------------------------------------|
G)-99999999--------------------------------------------|
D)-99999999-1010101010101010-77777777--10/9-10/9-10/9--|
A)-77777777-1010101010101010-77777777--10/9-10/9-10/9--|
E)----------8-8-8-8-8-8-8-8--55555555--8-/7-8-/7-8-/7--|


Guitar 2
e)------------------------------------------------|
B)-12-12-----10-10-----^8---8/7---8/7---8/7---8/7-|
G)-------9-9-------7-7------5/4---5/4---5/4---5/4-| X3
D)------------------------------------------------|
A)------------------------------------------------|
E)------------------------------------------------|


ENDING

Both guitars
e)----------------------------------------------------------------|
B)----------------------------------------------------------------|
G)----------------------------------------------------------------|
D)-1010-10/9-10/9-10/9--1010-10/9-10/9-10/9—1414-14/13-14/13-14/13|
A)-1010-10/9-10/9-10/9--1010-10/9-10/9-10/9—1414-14/13-14/13-14/13|
E)-8-8--8-/7-8-/7-8-/7--8-8--8-/7-8-/7-8-/7—1212-12/11-12/11-13/11|

e)---------|
B)---------|
G)---79~---|
D)-7979----|
A)-7957----|
E)-57------|
Добавлено: 24.05.2012
Другие материалы по этой песне:

Страница создана 21.02.2012
http://primanota.ru/fall-out-boy/snitches-and-talkers-get-stitches-and-walkers-chords.htm
Привет, Гость.
Предлагаем пройти революционный курс по гитаре.
Подарок от PrimaNota.Ru, забирай!