PrimaNota.ru - самый крупный в мире бесплатный архив песенных текстов, аккордов, табулатур и нот


Fall Out Boy - Star 67 - таба, видео

Регистрация Запомнить меня
Войти через:  Facebook Google Twitter Vk Yandex Mail.ru

Fall Out Boy - Star 67 - таба, видео

Печатать
Просмотров: 172
-------------------------------------------------------------------------------
                             STAR 67 - Fall Out Boy
-------------------------------------------------------------------------------
Tabbed by:James Matkovich
Email:dabears2347@yahoo.com

Tuning: Drop D (DADGBE)

So this is a really cool Fall Out Boy b-side, and since no one's posted a tab yet and
the intro chords could be tricky to pick up by ear, I figured I'd tab it out. Here are the
three power chords played throughout most of the song. Another guitar is strumming the D 
string when these chords come in.

e|---------------------------------------------------------------------------|
B|---------------------------------------------------------------------------|
G|------------------------------------5--------------------------------------|
D|------14--------------8-------------5--------------------------------------|
A|------10--------------5-------------3--------------------------------------|
E|------10--------------5-------------0--------------------------------------|

After several times of that, another guitar comes in and plays octaves over those chords

e|---------------------------------------------------------------------------|
B|---------------------------------------------------------------------------|
G|--12----------10-------------------9s----11--------------------------------|
D|---x-----------x-------------------x------x--------------------------------|
A|--10-----------8-------------------7s-----9--------------------------------|
E|---------------------------------------------------------------------------|

When that sequence is ending and the guitars are just playing D power chords, this
little riff comes in.

e|---------------------------------------------------------------------------|
B|---------------------------------------------------------------------------|
G|-10-10-10-9-9-9------------------------------------------------------------|
D|----------------10---------------------------------------------------------|
A|---------------------------------------------------------------------------|
E|---------------------------------------------------------------------------|
PM ..................

Then the three chords from before repeat and eventually lead into the chorus.

e|---------------------------------------------------------------------------|
B|---------------------------------------------------------------------------|
G|---------------------------------------------------------------------------|
D|----0--------0-----------5---------3---------------------------------------|
A|----0--------0-----------5---------3---------------------------------------|
E|----0--------0-----------5---------3---------------------------------------|

What the other guitar plays over that

e|---------------------------------------------------------------------------|
B|---------------------------------------------------------------------------|
G|------10b11------10b11--------9b10-----------------------------------------|
D|----------------------------------------9b10-------------------------------|
A|---------------------------------------------------------------------------|
E|---------------------------------------------------------------------------|

And there you have it, folks.
This tab should be completely accurate.
Comments and concerns are always welcome.
Happy Jamming.

************************************

| /   slide up
| \   slide down
| h   hammer-on
| p   pull-off
| ~   vibrato
| +   harmonic
| x   Mute note
| b   Bend
| pb  Pre-bend
| br  Bend release
| pbr Pre-bend release
| brb Bend release bend

************************************
Добавлено: 02.07.2012
Другие материалы по этой песне:
  • Аккорды и текст

Страница создана 02.07.2012
http://primanota.ru/fall-out-boy/star-67-chords.htm
Привет, Гость.
Предлагаем пройти революционный курс по гитаре.
Подарок от PrimaNota.Ru, забирай!