PrimaNota.ru - самый крупный в мире бесплатный архив песенных текстов, аккордов, табулатур и нот


Falkenbach - Of Forests Unknown - текст песни, таба, видео

Регистрация Запомнить меня
Войти через:  Facebook Google Twitter Vk Yandex Mail.ru

Falkenbach - Of Forests Unknown - текст песни, таба, видео

Печатать
Просмотров: 142
t- tremolo picking
s- slide

Verse
E|---------------------------------------------------------------------|
B|---------------------------------------------------------------------|
G|---------------------------------------------------------------------|
D|----11t----12t--11t----5t--7t--4t------11t----12t--11t----5t--7t--4t-|
A|----11t----12t--11t----5t--7t--4t------11t----12t--11t----5t--7t--4t-|
e|-----9t----10t---9t----3t--5t--2t-------9t----10t---9t----3t--5t--2t-|

repeat until pre-chorus

Pre-chorus
E|---------------------------------------------------------------------|
B|---------------------------------------------------------------------|
G|---------------------------------------------------------------------|
D|-11----11------11----11---11---11------------------------------------|
A|-11----11------11----11---11---11------------------------------------|
e|--9-----9------10-----7---10----9------------------------------------|

repeat until chorus

Chorus
E|---------------------------------------------------------------------|
B|---------------------------------------------------------------------|
G|---------------------------------------------------------------------|
D|-11----11-------12----9s12--11----11------12----14-------------------|
A|-11----11-------12----9s12--11----11------12----14-------------------|
e|--9-----9-------10----7s10---9-----9------10----11-------------------|

Pre-chorus
Chorus
Verse
Pre-chorus
Chorus
Pre chorus

Добавлено: 05.03.2012
Другие материалы по этой песне:
  • Аккорды и текст

Страница создана 05.03.2012
http://primanota.ru/falkenbach/of-forests-unknown-chords.htm
Привет, Гость.
Предлагаем пройти революционный курс по гитаре.
Подарок от PrimaNota.Ru, забирай!