PrimaNota.ru - самый крупный в мире бесплатный архив песенных текстов, аккордов, табулатур и нот


Falkenbach - Vanadis - текст песни, таба, видео

Регистрация Запомнить меня
Войти через:  Facebook Google Twitter Vk Yandex Mail.ru

Falkenbach - Vanadis - текст песни, таба, видео

Печатать
Просмотров: 303
Falkenbach - Vanadis 

tab: blackbird88
tuning: standard (EADGBe)
 
keyboard intro 
 
riff A (flute) (1:21) 
|---7----7----7-5---5-7-5---------------------------------| 
|-5----5----5-----8-------8--7-5--7---5~------------------| 
|-----------------------------------7----5----------------| 
|---------------------------------------------------------| 
|---------------------------------------------------------| 
|---------------------------------------------------------| 
						(2x) 
riff B (flute) (1:39) 
|---5-7-8--7---5~------7---7---7-5------------------------| 
|-5----------8-------5---5---5-----8-7-5--5h7-8-5~--------| 
|---------------------------------------------------------| 
|---------------------------------------------------------| 
|---------------------------------------------------------| 
|---------------------------------------------------------| 
 
riff C (flute) (1:50) 
|---7---7---7-5---------------------5-7-8--7---5~---------| 
|-5---5---5-----8-7-5--5h7-8-5~---5----------8------------| 
|---------------------------------------------------------| 
|---------------------------------------------------------| 
|---------------------------------------------------------| 
|---------------------------------------------------------| 
 
riff A (chords) (1:21) 
|---------------------------------------------------------| 
|---------------------------------------------------------| 
|-4---4--------------4---4--------------------------------| 
|-2---2---5---5------2---2---5---5------------------------| 
|---------3---3--------------3---3------------------------| 
|---------------------------------------------------------| 
 
riff B (chords) (1:39) 
|---------------------------------------------------------| 
|---------------------------------------------------------| 
|-9---9---------------------------------------------------| 
|-7---7---9---9---7---5-----9---9---7---5-----------------| 
|---------7---7---5---5-----7---7---5---3-----------------| 
|---------------------------------------------------------| 
 
riff C (chords) (2:01) 
|---------------------------------------------------------| 
|---------------------------------------------------------| 
|---------------------------------------------------------| 
|-9---7---5------9---7---8--------------------------------| 
|-7---5---3------7---5---6--------------------------------| 
|---------------------------------------------------------| 
 
repeat riff A+B+C 1x 
repeat riff A (chords), B (chords), C (chords) 2x 
 
riff D (3:14) 
The 2/4 chords is replaced as minder for a keyboard note! 
It's not actually a chord, but i added it, so you have a clue  
how to play this part! 
|---------------------------------------------------------| 
|---------------------------------------------------------| 
|----4------4-------4------------4------4-------4---------| 
|----2------2-------2------------2------2-------2---------| 
|-2-----2-2----2-2-----/555----2----2-2----2-2-----222-3-3| 
|-0-----0-0----0-0------333----0----0-0----0-0-----000-1-1| 
 
|---------------------------------------------------------| 
|---------------------------------------------------------| 
|----4------4-------4-------------4------4-----4----------| 
|----2------2-------2-------------2------2-----2----------| 
|-3-----3-3----3-3-----222-3-3--3----3-3---3-3----333/5---| 
|-1-----1-1----1-1-----000-1-1--1----1-1---1-1----111/3---| 
						(4x) 
riff E (4:34) 
|---------------------------------------------------------| 
|---------------------------------------------------------| 
|-7---6---4------7---9---11-------------------------------| 
|-5---4---2------5---7----9-------------------------------| 
|---------------------------------------------------------| 
|---------------------------------------------------------| 
 
repeat riff A+B+C 1x 
repeat riff A (chords), B (chords), C (chords) 2x 
 
repeat riff D 4x (5:46) 
repeat riff E 1x (7:06) 
 
repeat riff A+B+C 1x 
repeat riff A (chords), B (chords), C (chords) 2x 
 
repeat riff E 1x (end riff) 
Добавлено: 14.03.2012
Другие материалы по этой песне:
  • Аккорды и текст

Страница создана 14.03.2012
http://primanota.ru/falkenbach/vanadis-chords.htm
Привет, Гость.
Предлагаем пройти революционный курс по гитаре.
Подарок от PrimaNota.Ru, забирай!