PrimaNota.ru - самый крупный в мире бесплатный архив песенных текстов, аккордов, табулатур и нот


Eyehategod - Dixie Whiskey - таба, бас-таба, видео

Регистрация Запомнить меня
Войти через:  Facebook Google Twitter Vk Yandex Mail.ru

Eyehategod - Dixie Whiskey - таба, бас-таба, видео

Печатать
Просмотров: 257
Band: EyeHateGod
Song: Dixie Whiskey
Album: Dopesick
Date: 1996

In my opinion one of the best EyeHateGod songs ever. Sounds good to me, tell me what you 
I can't take all the credit for this though.

Tuning is either a full step down or one and a half steps.

Riff A X4
|-------------------------------------------------------|
|-------------------------------------------------------|
|-------------------------------------------------------|
|-------------------------------------------------------|
|---------3---------5---3---3---3-------3---------------|
|-0-3-4-5---5-4-3-0-------5-------5-3-5---5-3-----------|

Riff B X2
|-------------------------------------------------------|
|-------------------------------------------------------|
|-------------------------------------------------------|
|--------5---------7---5---5---------5------------------|
|2-5-6-7-3-7-6-5-2-5---3-7-3---7-5-7-3-7-5--------------|
|0-3-4-5---5-4-3-0-------5-----5-3-5---5-3--------------|

Riff C X4
|-----------------------------------------------------------|
|-----------------------------------------------------------|
|-----------------------------------------------------------|
|-----------------------------------------------------------|
|-----2-2-2-2--2--2--------3--------------------------------|
|-3~--0-0-0-0--0--0--0-3-5---5-3-0--------------------------|

Riff D1 X3
|-----------------------------------------------------------|
|-----------------------------------------------------------|
|-----------------------------------------------------------|
|-------7--5--2---------------------------------------------|
|-2--2--5--3--0--5----5-5------3-5--------------------------|
|-0--0-----------3----3-3--3-5------------------------------|

Riff D2 X1
|------------------------------------------------------------------|
|------------------------------------------------------------------|
|------------------------------------------------------------------|
|-------7--5--2----------------------------------------------------|
|-2--2--5--3--0--5----5-5--------3---------------------------------|
|-0--0-----------3----3-3--0-3-5---5-3-0---------------------------|

Riff C X4
Riff B X4
Riff C X4
Riff D1 X3
Riff D2 X1
Riff C X4

End
|-------------------------------------------------------|
|-------------------------------------------------------|
|-------------------------------------------------------|
|-------------------------------------------------------|
|-2--2--------------------------------------------------|
|-0--0--------------------------------------------------|
Добавлено: 29.06.2012
Другие материалы по этой песне:

Страница создана 07.03.2012
http://primanota.ru/eyehategod/dixie-whiskey-chords.htm
Привет, Гость.
Предлагаем пройти революционный курс по гитаре.
Подарок от PrimaNota.Ru, забирай!