PrimaNota.ru - самый крупный в мире бесплатный архив песенных текстов, аккордов, табулатур и нот


Extreme - Star - таба, видео

Регистрация Запомнить меня
Войти через:  Facebook Google Twitter Vk Yandex Mail.ru

Extreme - Star - таба, видео

Печатать
Просмотров: 155
                                 Extreme
                                  Star
                           Saudades De Rock



Tuning: Half step down (Eb Ab etc.)



|-----------------------------------------------------------------------------|
|-----------------------------------------------------------------------------|
|-----------------------------------------------------------------------------|
|-------5-7--5--------4-5--4p0------------------------------------------------|
|-5h6h7--7----7-5s3-0--0-------0--3b(5)-3b(5)----3b(5)-3b(5)---3b(5)-3b(5)----|
|---------------------------------------------0h3-----------0h3-----------0h3-|

|----------------------|
|----------------------|
|----------------------|   Bettencourt plays first riff again, but cuts out
|----------------------|   last little lick and plays a vibrato on the C 
|-3p0---5p3p0-5p3p0-0--|  (3rd fret, 5th string), then this last bit,without 
|----3-----------------|   the last note. 


Hope you enjoy this tab!
Добавлено: 01.04.2012
Другие материалы по этой песне:
  • Аккорды и текст

Страница создана 01.04.2012
http://primanota.ru/extreme/star-chords.htm
Привет, Гость.
Предлагаем пройти революционный курс по гитаре.
Подарок от PrimaNota.Ru, забирай!