PrimaNota.ru - самый крупный в мире бесплатный архив песенных текстов, аккордов, табулатур и нот


Exploited - Uk 82 - таба, бас-таба, видео

Регистрация Запомнить меня
Войти через:  Facebook Google Twitter Vk Yandex Mail.ru

Exploited - Uk 82 - таба, бас-таба, видео

Печатать
Просмотров: 429
Авторы музыки: John Duncan, Wattie Buchan

-------------------------------------------------------------------------------
UK 82 - The Exploited
Troops Of Tomorrow
-------------------------------------------------------------------------------
Tabbed by: axeslash (Matthew Holmes)
Email: holmzito@yahoo.com

Tuning: EADGBE (standard)

Intro
e|-----------------------------------------|
B|-----------------------------------------|
G|-8/9-9-9-9-8/9-9-9-9-8/9-9-9-9-8/9-9-9-9-|
D|-6/7-7-7-7-6/7-7-7-7-6/7-7-7-7-6/7-7-7-7-|
A|-----------------------------------------|
E|-----------------------------------------|
Riff 1
e|-------------------------------------------------|
B|-------------------------------------------------|
G|-------------------------------------------------|
D|-------------------------------------------------|
A|-10-10-10-10-10-10-10-10-10-10-10-10-10-10-10-10-|
E|--8--8--8--8--8--8--8--8--8--8--8--8--8--8--8--8-|
Riff 2
e|------------------------------------------------|
B|------------------------------------------------|
G|------------------------------------------------|
D|------------------------------------------------|
A|-7-7-7-7-7/10-7-7-7-7-7/12-7-7-7-7-7/10-7-7-7-9-|
E|-5-5-5-5-5/-8-5-5-5-5-5/10-5-5-5-5-5/-8-5-5-5-7-|
Riff 3
e|----------------------------------------------------|
B|----------------------------------------------------|
G|----------------------------------------------------|
D|-pm|----------------------------------------------|-|
A|---10-10-10-10-10-10-10-10-10-10-10-10-10-10-10-10--|
E|----8--8--8--8--8--8--8--8--8--8--8--8--8--8--8--8--|
Riff 4
e|-----------------------7----------------------------|
B|-10--------------------7--------------------7-------|
G|-10--------------------7--------------------7-------|
D|-10--------------------7--------------------7-------|
A|--8--------------------5--------------------5-------|
E|-downstroke---------upstroke------------------------|
Overdubbed Guitar Riff
e|-------------------------------------------------------------|
B|-11/12-12-12-12-11/12-12-12-12-11/12-12-12-12-11/12-12-12-12-|
G|--8/-9--9--9--9--8/-9--9--9--9--8/-9--9--9--9--8/-9--9--9--9-|
D|-------------------------------------------------------------|
A|-------------------------------------------------------------|
E|-------------------------------------------------------------|



Intro x2

Play the following sequence 4 times.
Riff 1
Riff 2
Riff 1 
Riff 2
Riff 3 
Riff 2 
Riff 3
Riff 2
Riff 4
Intro Riff x2
Play Overdubbed Riff after Intro plays once 

| /     Slide up
| pm|-| Palm Mute
==============================================================================
Добавлено: 30.07.2012
Другие материалы по этой песне:
  • Аккорды и текст

Страница создана 12.03.2012
http://primanota.ru/exploited/uk-82-chords.htm
Привет, Гость.
Предлагаем пройти революционный курс по гитаре.
Подарок от PrimaNota.Ru, забирай!