PrimaNota.ru - самый крупный в мире бесплатный архив песенных текстов, аккордов, табулатур и нот


Exploited - Fuck The Usa Live - таба, видео

Регистрация Запомнить меня
Войти через:  Facebook Google Twitter Vk Yandex Mail.ru

Exploited - Fuck The Usa Live - таба, видео

Печатать
Просмотров: 155
Fuck The USA 
By the Exploited

Awsome band Awsome Song

5/4 time Signiture

Intro

Eb|----------------|----------------|----------------|
Bb|----------------|----------------|----------------|
Gb|----------------|----------------|----------------|
Db|----------------|----------------|----------------|
Ab|----------------|----------------|/////////12-----|
Eb|----------------|----------------|----------------|

Eb|----------------|----------------|----------------|
Bb|----------------|----------------|----------------|
Gb|---2-----5------|--4----7--7-----|---2---5---4----|
Db|---2-----5------|--4----7--7-----|---2---5---4----|
Ab|---0-----3------|--2----5--5-----|---0---3---2----|
Eb|----------------|----------------|----------------|

Eb|----------------|----------------|----------------|----------------|
Bb|----------------|----------------|----------------|----------------|
Gb|-----------2----|---5---4---7----|---7---2----5---|----4-----------|
Db|-----------2----|---5---4---7----|---7---2----5---|----4-----------|
Ab|-----------0----|---3---2---5----|---5---0----3---|----2-----------|
Eb|----------------|----------------|----------------|----------------|

Main Riff

Eb|----------------|----------------|----------------|
Bb|----------------|----------------|----------------|
Gb|--2---2-2--2-2--|--5---5-5--5-5--|--4--4-4--4--4--|
Db|--2---2-2--2-2--|--5---5-5--5-5--|--4--4-4--4--4--|
Ab|--0---0-0--0-0--|--3---3-3--3-3--|--2--2-2--2--2--|
Eb|----------------|----------------|----------------|

Eb|----------------|----------------|----------------|
Bb|----------------|----------------|----------------|
Gb|----------------|--2--2-2--2-2---|--5--5-5--5--5--|
Db|--5---5-5-5-5---|--2--2-2--2-2---|--5--5-5--5--5--|
Ab|--5---5-5-5-5---|--0--0-0--0-0---|--3--3-3--3--3--|
Eb|--3---3-3-3-3---|----------------|----------------|

Eb|----------------|----------------|----------------|
Bb|----------------|----------------|----------------|%
Gb|--4--4-4--4--4--|-4--4-4--4--4---|----------------|   Repeat 
Db|--4--4-4--4--4--|-4--4-4--4--4---|----------------|
Ab|--2--2-2--2--2--|-2--2-2--2--2---|----------------|
Eb|----------------|----------------|----------------|%

Verse 4X

Eb|----------------|----------------|----------------|
Bb|----------------|----------------|----------------|
Gb|--2---2-2--2-2--|--5---5-5--5-5--|--4--4-4--4--4--|
Db|--2---2-2--2-2--|--5---5-5--5-5--|--4--4-4--4--4--|
Ab|--0---0-0--0-0--|--3---3-3--3-3--|--2--2-2--2--2--|
Eb|----------------|----------------|----------------|

Eb|----------------|----------------|----------------|
Bb|----------------|----------------|----------------|
Gb|----------------|--2--2-2--2-2---|--5--5-5--5--5--|
Db|--5---5-5-5-5---|--2--2-2--2-2---|--5--5-5--5--5--|
Ab|--5---5-5-5-5---|--0--0-0--0-0---|--3--3-3--3--3--|
Eb|--3---3-3-3-3---|----------------|----------------|  Repeat Verse 4X


Chorus



Eb|----------------|----------------|----------------|
Bb|----------------|-5--5-5--5-5----|----------------|
Gb|-2--2-2--2-2----|-4--4-4--4-4----|-5--5-5--5-5----|
Db|-2--2-2--2-2----|-2--2-2--2-2----|-5--5-5--5-5----|
Ab|-0--0-0--0-0----|----------------|-3--3-3--3-3----|
Eb|----------------|----------------|----------------|

Eb|----------------|
Bb|----------------| %
Gb|-4----5---4-----|     Repeat 4X THen PLay this :| 
Db|-4----5---4-----|                               |   
Ab|-2----3---2-----| %                             V 
Eb|----------------|

Eb|----------------|----------------|----------------|
Bb|----------------|----------------|----------------|
Gb|-5--5-5--5-5----|-4----5---4-----|----------------|
Db|-5--5-5--5-5----|-4----5---4-----|----------------|
Ab|-3--3-3--3-3----|-2----3---2-----|----------------|
Eb|----------------|----------------|----------------|

Main Riff

Eb|----------------|----------------|----------------|
Bb|----------------|----------------|----------------|
Gb|--2---2-2--2-2--|--5---5-5--5-5--|--4--4-4--4--4--|
Db|--2---2-2--2-2--|--5---5-5--5-5--|--4--4-4--4--4--|
Ab|--0---0-0--0-0--|--3---3-3--3-3--|--2--2-2--2--2--|
Eb|----------------|----------------|----------------|

Eb|----------------|----------------|----------------|
Bb|----------------|----------------|----------------|
Gb|----------------|--2--2-2--2-2---|--5--5-5--5--5--|
Db|--5---5-5-5-5---|--2--2-2--2-2---|--5--5-5--5--5--|
Ab|--5---5-5-5-5---|--0--0-0--0-0---|--3--3-3--3--3--|
Eb|--3---3-3-3-3---|----------------|----------------|

Eb|----------------|----------------|----------------|
Bb|----------------|----------------|----------------|%
Gb|--4--4-4--4--4--|-4--4-4--4--4---|----------------|   Repeat 
Db|--4--4-4--4--4--|-4--4-4--4--4---|----------------|
Ab|--2--2-2--2--2--|-2--2-2--2--2---|----------------|
Eb|----------------|----------------|----------------|%


Verse 4X

Eb|----------------|----------------|----------------|
Bb|----------------|----------------|----------------|
Gb|--2---2-2--2-2--|--5---5-5--5-5--|--4--4-4--4--4--|
Db|--2---2-2--2-2--|--5---5-5--5-5--|--4--4-4--4--4--|
Ab|--0---0-0--0-0--|--3---3-3--3-3--|--2--2-2--2--2--|
Eb|----------------|----------------|----------------|

Eb|----------------|----------------|----------------|
Bb|----------------|----------------|----------------|
Gb|----------------|--2--2-2--2-2---|--5--5-5--5--5--|
Db|--5---5-5-5-5---|--2--2-2--2-2---|--5--5-5--5--5--|
Ab|--5---5-5-5-5---|--0--0-0--0-0---|--3--3-3--3--3--|
Eb|--3---3-3-3-3---|----------------|----------------|  Repeat Verse 4X

Chorus



Eb|----------------|----------------|----------------|
Bb|----------------|-5--5-5--5-5----|----------------|
Gb|-2--2-2--2-2----|-4--4-4--4-4----|-5--5-5--5-5----|
Db|-2--2-2--2-2----|-2--2-2--2-2----|-5--5-5--5-5----|
Ab|-0--0-0--0-0----|----------------|-3--3-3--3-3----|
Eb|----------------|----------------|----------------|

Eb|----------------|
Bb|----------------| %
Gb|-4----5---4-----|     Repeat 4X THen PLay this :| 
Db|-4----5---4-----|                               |   
Ab|-2----3---2-----| %                             V 
Eb|----------------|

Eb|----------------|----------------|----------------|
Bb|----------------|----------------|----------------|
Gb|-5--5-5--5-5----|-4----5---4-----|----------------|
Db|-5--5-5--5-5----|-4----5---4-----|----------------|
Ab|-3--3-3--3-3----|-2----3---2-----|----------------|
Eb|----------------|----------------|----------------|

Main Riff/ SOLO

Im SOrry i dont know the Solo

Eb|----------------|----------------|----------------|
Bb|----------------|----------------|----------------|
Gb|--2---2-2--2-2--|--5---5-5--5-5--|--4--4-4--4--4--|
Db|--2---2-2--2-2--|--5---5-5--5-5--|--4--4-4--4--4--|
Ab|--0---0-0--0-0--|--3---3-3--3-3--|--2--2-2--2--2--|
Eb|----------------|----------------|----------------|

Eb|----------------|----------------|----------------|
Bb|----------------|----------------|----------------|
Gb|----------------|--2--2-2--2-2---|--5--5-5--5--5--|
Db|--5---5-5-5-5---|--2--2-2--2-2---|--5--5-5--5--5--|
Ab|--5---5-5-5-5---|--0--0-0--0-0---|--3--3-3--3--3--|
Eb|--3---3-3-3-3---|----------------|----------------|

Eb|----------------|----------------|----------------|
Bb|----------------|----------------|----------------|%
Gb|--4--4-4--4--4--|-4--4-4--4--4---|----------------|   Repeat 
Db|--4--4-4--4--4--|-4--4-4--4--4---|----------------|
Ab|--2--2-2--2--2--|-2--2-2--2--2---|----------------|
Eb|----------------|----------------|----------------|%

Verse 4X

Eb|----------------|----------------|----------------|
Bb|----------------|----------------|----------------|
Gb|--2---2-2--2-2--|--5---5-5--5-5--|--4--4-4--4--4--|
Db|--2---2-2--2-2--|--5---5-5--5-5--|--4--4-4--4--4--|
Ab|--0---0-0--0-0--|--3---3-3--3-3--|--2--2-2--2--2--|
Eb|----------------|----------------|----------------|

Eb|----------------|----------------|----------------|
Bb|----------------|----------------|----------------|
Gb|----------------|--2--2-2--2-2---|--5--5-5--5--5--|
Db|--5---5-5-5-5---|--2--2-2--2-2---|--5--5-5--5--5--|
Ab|--5---5-5-5-5---|--0--0-0--0-0---|--3--3-3--3--3--|
Eb|--3---3-3-3-3---|----------------|----------------|  Repeat Verse 4X

Chorus



Eb|----------------|----------------|----------------|
Bb|----------------|-5--5-5--5-5----|----------------|
Gb|-2--2-2--2-2----|-4--4-4--4-4----|-5--5-5--5-5----|
Db|-2--2-2--2-2----|-2--2-2--2-2----|-5--5-5--5-5----|
Ab|-0--0-0--0-0----|----------------|-3--3-3--3-3----|
Eb|----------------|----------------|----------------|

Eb|----------------|
Bb|----------------| %
Gb|-4----5---4-----|     Repeat 4X THen PLay this :| 
Db|-4----5---4-----|                               |   
Ab|-2----3---2-----| %                             V 
Eb|----------------|

Eb|----------------|----------------|----------------|
Bb|----------------|----------------|----------------|
Gb|-5--5-5--5-5----|-4----5---4-----|----------------|
Db|-5--5-5--5-5----|-4----5---4-----|----------------|
Ab|-3--3-3--3-3----|-2----3---2-----|----------------|
Eb|----------------|----------------|----------------|

Main Riff

Eb|----------------|----------------|----------------|
Bb|----------------|----------------|----------------|
Gb|--2---2-2--2-2--|--5---5-5--5-5--|--4--4-4--4--4--|
Db|--2---2-2--2-2--|--5---5-5--5-5--|--4--4-4--4--4--|
Ab|--0---0-0--0-0--|--3---3-3--3-3--|--2--2-2--2--2--|
Eb|----------------|----------------|----------------|

Eb|----------------|----------------|----------------|
Bb|----------------|----------------|----------------|
Gb|----------------|--2--2-2--2-2---|--5--5-5--5--5--|
Db|--5---5-5-5-5---|--2--2-2--2-2---|--5--5-5--5--5--|
Ab|--5---5-5-5-5---|--0--0-0--0-0---|--3--3-3--3--3--|
Eb|--3---3-3-3-3---|----------------|----------------|

Eb|----------------|----------------|----------------|
Bb|----------------|----------------|----------------|%
Gb|--4--4-4--4--4--|-4--4-4--4--4---|----------------|   Repeat 
Db|--4--4-4--4--4--|-4--4-4--4--4---|----------------|
Ab|--2--2-2--2--2--|-2--2-2--2--2---|----------------|
Eb|----------------|----------------|----------------|%


Verse 4X

Eb|----------------|----------------|----------------|
Bb|----------------|----------------|----------------|
Gb|--2---2-2--2-2--|--5---5-5--5-5--|--4--4-4--4--4--|
Db|--2---2-2--2-2--|--5---5-5--5-5--|--4--4-4--4--4--|
Ab|--0---0-0--0-0--|--3---3-3--3-3--|--2--2-2--2--2--|
Eb|----------------|----------------|----------------|

Eb|----------------|----------------|----------------|
Bb|----------------|----------------|----------------|
Gb|----------------|--2--2-2--2-2---|--5--5-5--5--5--|
Db|--5---5-5-5-5---|--2--2-2--2-2---|--5--5-5--5--5--|
Ab|--5---5-5-5-5---|--0--0-0--0-0---|--3--3-3--3--3--|
Eb|--3---3-3-3-3---|----------------|----------------|  Repeat Verse 4X

Chorus



Eb|----------------|----------------|----------------|
Bb|----------------|-5--5-5--5-5----|----------------|
Gb|-2--2-2--2-2----|-4--4-4--4-4----|-5--5-5--5-5----|
Db|-2--2-2--2-2----|-2--2-2--2-2----|-5--5-5--5-5----|
Ab|-0--0-0--0-0----|----------------|-3--3-3--3-3----|
Eb|----------------|----------------|----------------|

Eb|----------------|
Bb|----------------| %
Gb|-4----5---4-----|     Repeat 4X THen PLay this :| 
Db|-4----5---4-----|                               |   
Ab|-2----3---2-----| %                             V 
Eb|----------------|

Eb|----------------|----------------|----------------|
Bb|----------------|----------------|----------------|
Gb|-5--5-5--5-5----|-4----5---4-----|----------------|
Db|-5--5-5--5-5----|-4----5---4-----|----------------|
Ab|-3--3-3--3-3----|-2----3---2-----|----------------|
Eb|----------------|----------------|----------------|


Ending

Eb|----------------|----------------|----------------|----------------|
Bb|----------------|----------------|----------------|-2--------------|
Gb|-2--------------|----------------|----------------|-2--------------|
Db|-2--------------|----------------|----------------|-2--------------|
Ab|-0--------------|----------------|----------------|-0--------------|
Eb|----------------|----------------|----------------|----------------|


D.P.

Fuck The USA
Добавлено: 28.03.2012
Другие материалы по этой песне:

Страница создана 28.03.2012
http://primanota.ru/exploited/fuck-the-usa-live-chords.htm
Привет, Гость.
Предлагаем пройти революционный курс по гитаре.
Подарок от PrimaNota.Ru, забирай!