PrimaNota.ru - самый крупный в мире бесплатный архив песенных текстов, аккордов, табулатур и нот


Exploited - Fight Back - текст песни, бас-таба, видео

Регистрация Запомнить меня
Войти через:  Facebook Google Twitter Vk Yandex Mail.ru

Exploited - Fight Back - текст песни, бас-таба, видео

Печатать
Просмотров: 170
Уроки эстрадного вокала в Санкт-Петербурге
Авторы музыки: Wattie Buchan

-------------------------------------------------------------------------------
                             Fight Back - Exploited
-------------------------------------------------------------------------------
Tabbed by: Oscar Gaszzz / Facebook
E-mail: romanpirce10@hotmail.com


00:15 riff 1

G|---------------------------------------------------------------------------|
D|---------------------------------------------------------------------------|
A|------------------------3----7---------------------------------------------|
E|--0--000000000000000--3---3------------------------------------------------|

00:36 riff 2

G|---------------------------------------------------------------------------|
D|---------------------------------------------------------------------------|
A|---------------------------------------------------------------------------|
E|-6-6---6-4-4---4-7--00000--6-5-3-------------------------------------------|

00:46

repeat riff 1

01:07

repeat riff 2

01:18

G|-------------|-------------|-------------|-------------|-------------------|
D|-------------|-------------|-------------|-------------|-------------------|
A|-----3-------|-----3-------|-----3-------|-----3-------|-------------------|
E|--3-----3--7-|--3-----3--7-|--3-----3--7-|--3-----3--7-|-------------------|

01:28

repeat riff 1

01:59

repeat riff 2

02:10 Bass solo

G|---------------------------------------------------------------------------|
D|---------------------------------------------------------------------------|
A|------------------------3----7---------------------------------------------|
E|--0--000000000000000--3---3------------------------------------------------|

03:12

repeat riff 2

03:22 End

G|-----------------|---------------------------------------------------------|
D|-----------------|---------------------------------------------------------|
A|-----------------|---------------------------------------------------------|
E|-6--3-5-6--3-5-6-|---------------------------------------------------------|



| /  slide up
| \  slide down
| h  hammer-on
| p  pull-off
| ~  vibrato
| +  harmonic
| x  Mute note
===============================================================================
Добавлено: 24.11.2015
Другие материалы по этой песне:
  • Аккорды и текст

Страница создана 12.05.2012
http://primanota.ru/exploited/fight-back-chords.htm
Привет, Гость.
Предлагаем пройти революционный курс по гитаре.
Подарок от PrimaNota.Ru, забирай!