PrimaNota.ru - самый крупный в мире бесплатный архив песенных текстов, аккордов, табулатур и нот


Evanescence - Tourniquent - таба, видео

Регистрация Запомнить меня
Войти через:  Facebook Google Twitter Vk Yandex Mail.ru

Evanescence - Tourniquent - таба, видео

Печатать
Просмотров: 160




Intro/Chorus

- Rhythm Guitar:

   E5
e --------------------------------------------
B --------------------------------------------
G ------0----------------------0--------------
D --22-2--22--2-4--0-------22-2---22--2-4--0--
A --22----22---------------22-----22----------
E --00----00---------------00-----00----------

    G/C5                  A/D5
e --------------------------------------------------
B --------------------------------------------------
G ------0-------------------------------------------
D --22-2---22--2-4--0------4--7--5-4--7-5--4h5p4----
A --33-----33--------------5---------------------5--
E --33-----33--------------5------------------------


- Another guitar plays this after the rhythm goes through once.


e --------5~--|--------------
B --8~-7~-----|--8~--7-------
G ------------|--------7-----
D ------------|----------7~--
A ------------|--------------
E ------------|--------------

E5
 My god, my tourniquet

          G/C5    A/D5
Return to me   salvation

---------------------------------------------------------

Verse



e ---------------------------
B ---------------------------
G ---------------------------
D ----------[   ]------------
A ---------------------------
E ---------------------------

Rest through I tryed to kill the pain....


   E5                   G/C5        A/D5
e -------------------------------------------
B -------------------------------------------
G --------0--------------------0-----------5-
D ------2--------2---------2-------------4---
A ----2--------2---2---------3---------5-----
E --0--------0-----------3-----------5-------

Played somewhat clean, lightly

                  E5                            G/C5                 A/D5
So much more.... I may die and im pouring out crimes of regret and betrayal

   E5      E5       G/C5    A/D5
e ----------------------------------------0--
B ------------------------------------4------
G --------------------------------------1----
D --22x2--2-22x2--2-22x2--2-44x4--4----------
A --22x2--2-22x2--2-33x3--3-55x5--5----------
E --00x0--0-00x0--0-33x3--3-55x5--5----------

   E5     E5        G/C5          A/D5
I'm dying, praying, bleeding, and screaming

 E5              E5        G/C5     A/D5
Am I too lost to be saved Am I too lost


-------------------------------------

Bridge

   E5
e ------------------------------------
B ------------------5^----------------
G ------------------------------------
D ------------------------------------
A --22-222-22-2-222-------------------
E --00-000-00-0-000-------------------

Добавлено: 24.10.2013
Вам также может быть интересно:
Другие материалы по этой песне:
  • Аккорды и текст

Страница создана 24.10.2013
http://primanota.ru/evanescence/tourniquent-chords.htm
Привет, Гость.
Предлагаем пройти революционный курс по гитаре.
Подарок от PrimaNota.Ru, забирай!