PrimaNota.ru - самый крупный в мире бесплатный архив песенных текстов, аккордов, табулатур и нот


Evanescence - Sick - аккорды и текст, таба, видео

Регистрация Запомнить меня
Войти через:  Facebook Google Twitter Vk Yandex Mail.ru

Evanescence - Sick - аккорды и текст, таба, видео

Печатать
Просмотров: 250
Авторы: Will Hunt, Evanescence
Авторы текста: Amy Lee
Sick
Evanescence
e|------------------------------------|
B|------------------------------------|
G|------------------------------------|x4
D|--------0-------0-----1p0-----------|
A|----------0-------0-----------------|
D|---0-00------00-----0-----00--------|

e|------------------------------------|
B|------------------------------------|
G|------------------------------------|x1
D|---------3--------0-----------------|
A|-----------3--------5---------------|
D|----3-33------5-55---5-0------------|

---------------------------------------------------------------------------
0:39
Pre - Chorus
e|-------------------------------|
B|-------------------------------|
G|-------------------------------|
D|---5------8-----88-------------|
A|---5--555-8-888-88-------------|
D|---5--555-8-888-88-------------|
        ...   ...

"hold on..."
e|---------------------------------------------------------|
B|---------------------------------------------------------|
G|---------------------------------------------------------|
D|---0-----0-------3--5-----8-----8-5----------------------|
A|---0-000-0-00000h3--5-555-8-888-8-5-333333333333333/5----|
D|---0-000-0-00000h3--5-555-8-888-8-5-333333333333333/5----|
       ...   .....      ...   ...     ..........
---------------------------------------------------------------------------
0:51
Chorus

e|----------------------------------------------------|
B|----------------------------------------------------|
G|----------------------------------------------------|
D|--------------------------------------8-------------|
A|--------------------------------------8-888-8\7-----|
D|---12p0-00--12p0-00--0-0-0-0-12p0-00--8-888-8\7-----|  
                                          ...
e|----------------------------------------------------|
B|----------------------------------------------------|
G|----------------------------------------------------|
D|--------------------------------------3-------------|
A|--------------------------------------3-3333/5------|
D|---12p0-00--12p0-00--0-0-0-0-12p0-00--3-3333/5------|
                                          ...
e|----------------------------------------------------|
B|----------------------------------------------------|
G|----------------------------------------------------|
D|--------------------------------------8-------------|
A|--------------------------------------8-888-8\7-----|
D|---12p0-00--12p0-00--0-0-0-0-12p0-00--8-888-8\7-----|
                                          ...
e|----------------------------------------------------|
B|----------------------------------------------------|
G|----------------------------------------------------|
D|--------------------------------------3~~----0~~----|
A|--------------------------------------3~~----0~~----|
D|---12p0-00--12p0-00--0-0-0-0-12p0-00--3~~----0~~----|

Embrace the silence
Cause there's nothing
That can change the way I feel
Taken all that you wanted
Now there's nothing
That can change the way I feel

Hold on, little girl
The end is soon to come

Sick of it all
Sick of it all
We will not follow
Sick of it all
Sick of it all
They don't understand how
Sick we are
Sick we are
Of this bottomless
Pit of lies
Behind closed eyes

Oceans between us
And there's nothing
That can change the way I feel
I can still taste the poison
Of every fall,
Every breath,
I wasted here

Hold on, little girl
The end is soon to come

Sick of it all
Sick of it all
We will not follow
Sick of it all
Sick of it all
They don't understand how
Sick we are
Sick we are
Of this bottomless
Pit of lies
Behind closed eyes

Someday you'll know the place
Someday I will break through
And nothing you tell yourself
Will save us from the truth

SCREAMIN OUT:

SICK OF IT ALL
SICK OF IT ALL
We will not follow
SICK OF IT ALL
SICK OF IT ALL
They don't understand how
Sick we are
Sick we are
Of this bottomless
Pit of lies
Behind closed eyes
Добавлено: 12.10.2013
Другие материалы по этой песне:
  • Аккорды и текст

Страница создана 20.04.2012
http://primanota.ru/evanescence/sick-chords.htm
Привет, Гость.
Предлагаем пройти революционный курс по гитаре.
Подарок от PrimaNota.Ru, забирай!