PrimaNota.ru - самый крупный в мире бесплатный архив песенных текстов, аккордов, табулатур и нот


Escape The Fate - Smooth - текст песни, таба, бас-таба, видео

Регистрация Запомнить меня
Войти через:  Facebook Google Twitter Vk Yandex Mail.ru

Escape The Fate - Smooth - текст песни, таба, бас-таба, видео

Печатать
Просмотров: 220
Авторы музыки: Itaal Shur, Rob Thomas
Авторы текста: Rob Thomas
                            Escape the Fate
                                Smooth                                      

I made this on Guitar Pro and just extracted it into here. There are two guitars, 
lead and rythym. give feed back please. thanks



Gtr. I



     PM PM  PM   PM                                             
     S  E.  Q    E   S   S  E   S S     S   H.             E.   
D||------------------------10-------|--10h-12~-------------L---|
A||-----------------10h-12-----12---|--------------------------|
F||---------------------------------|--------------------------|
C||---------------------------------|--------------------------|
G||--0--0---0----0------------------|--------------------------|
C||--0--0---0----0------------------|--------------------------|


   E   E   E   E     Q.       S  S     S  S  H         Q.      
----L--10--12--14---<>14b------10-12-|--14-12-12---------L------|
-----------------------------------|--------------------------|
-----------------------------------|--------------------------|
-----------------------------------|--------------------------|
-----------------------------------|--------------------------|
-----------------------------------|--------------------------|


   E   Q      H            E       S H        Q.     S  
---L----------------------10---|-----------------------|
------10b----10brb-------------|--10-8--------L------L-|
-------------------------------|-----------------------|
-------------------------------|-----------------------|
-------------------------------|-----------------------|
-------------------------------|-----------------------|


  E  S S E  E  E  E  S   S  E     Q.     Q.     Q                
-------------------------------|---------------------|----|----||
--L--8-7-----------------------|---------------------|----|----||
---------9--8--8--9--9s-11s-9--|--9------9------L----|----|----||
-------------------------------|---------------------|----|----||
-------------------------------|---------------------|----|----||
-------------------------------|---------------------|----|----||

  

Gtr. 2



     PM PM  PM   PM PM PM PM PM                            
     S  E.  Q    S  S. S. E  E     Q    E  E  E  E  E  E   
D||-----------------------------|-------------------------|
A||-----------------------------|-------------------------|
F||-----------------------------|-------4--2-----5-----4--|
C||-----------------------------|--2----4--2-----5-----4--|
G||--0--0---0----0--0--0--0--0--|--2----2--0-----3-----2--|
C||--0--0---0----0--0--0--0--0--|--2----------------------|


                PM                                                  PM        
  Q    E  E  E  E  Q        Q    E  E  E  E  E  E     Q    E  E  E  E  Q      
-------------------------|-------------------------|-------------------------|
-------------------------|-------------------------|-------------------------|
--L----2--4--------------|-------4--2-----5-----4--|--L----2--4--------------|
--L----2--4-----x--3~----|--2----4--2-----5-----4--|--L----2--4-----x--3~----|
--L----0--2-----x--------|--2----2--0-----3-----2--|--L----0--2-----x--------|
----------------x--------|--2----------------------|----------------x--------|


                                          PM                                  
  Q    E  E  E  E  E  E     Q    E  E  E  E  Q        Q    E  E  E  E  E  E   
-------------------------|-------------------------|-------------------------|
-------------------------|-------------------------|-------------------------|
-------4--2-----5-----4--|--L----2--4--------------|-------4--2-----5-----4--|
--2----4--2-----5-----4--|--L----2--4-----x--3~----|--2----4--2-----5-----4--|
--2----2--0-----3-----2--|--L----0--2-----x--------|--2----2--0-----3-----2--|
--2----------------------|----------------x--------|--2----------------------|


                PM                 
  Q    E  E  E  E  Q        H       
-------------------------|-------||
-------------------------|-------||
--L----2--4--------------|--9\---||
--L----2--4-----x--3~----|--9\---||
--L----0--2-----x--------|--7\---||
----------------x--------|-------||




Duration Legend
---------------
W - whole
H - half
Q - quarter
E - 8th
S - 16th
T - 32nd
X - 64th
. - note dotted
|-n-|  - n-tuplets


Tablature Legend
----------------
L - tied note
x - dead note
g - grace note
(n) - ghost note
> - accentuded note
NH - natural harmonic
AH - artificial harmonic
TH - tapped harmonic
SH - semi harmonic
PH - pitch harmonic
h - hammer on
p - pull off
b - bend
br - bendRelease
pb - preBend
pbr - preBendRelease
brb - bendReleaseBend
\n/ - tremolo bar dip
\n - tremolo bar dive
-/n - tremolo bar Release up
/n\ - tremolo bar inverted dip
/n - tremolo bar return
-\n - tremolo bar Release down
S - shift slide
s - legato slide
/ -  slide into from below or out of upwards
\ -  slide into from above or out of downwards
~ - vibrato
W - wide vibrato
tr - trill
TP - tremolo picking
T - tapping
S - slap
P - pop
< - fade in
^ - brush up
v - brush down
Добавлено: 16.03.2012
Другие материалы по этой песне:

Страница создана 16.03.2012
http://primanota.ru/escape-the-fate/smooth-chords.htm
Привет, Гость.
Предлагаем пройти революционный курс по гитаре.
Подарок от PrimaNota.Ru, забирай!