PrimaNota.ru - самый крупный в мире бесплатный архив песенных текстов, аккордов, табулатур и нот


Carlos Santana - Love Of My Life Live - таба, видео

Регистрация Запомнить меня
Войти через:  Facebook Google Twitter Vk Yandex Mail.ru

Carlos Santana - Love Of My Life Live - таба, видео

Печатать
Просмотров: 316
Song:Love of my life
Artist: Carlos Santana ft. Dave Mathews
Album: Supernatural (LIVE)
Key: Gm
Tabbed by: Ravindra
E-mail: ravindrachangoer@gmail.com

After a long time, wont say much bout this one.....beautiful song...this tab is
NOT the studio version, but the Live version as on the Supernatural Live DVD.....Enjoy!!

************************************

| /   slide up
| \   slide down
| h   hammer-on
| p   pull-off
| ~   vibrato
| +   harmonic
| x   Mute note
| b   Bend
| pb  Pre-bend
| br  Bend release
| pbr Pre-bend release
| brb Bend release bend

************************************

Intro
e:-------------------------------------------------------------------------|
B:--------------------------6-4---------------4-3--------------------------|
G:---2-3---5/7-\5-2----2-3------2--2-3-5-3h5------3--5/7\5-----------------|
D:-5-----------------5-------------------------------------5--555-4-5-7-5h7|
A:-------------------------------------------------------------------------|
E:-------------------------------------------------------------------------|

Where you are, is where I wanna be
e:-------------------|
B:-10-11h13-11~------|
G:--------------12---|
D:-------------------|
A:-------------------|
E:-------------------|

And through your eyes, all the things I wanna see
e:-------10-13-11-10h11p10----10-10-10~~~---|
B:-10-13-------------------13---------------|
G:------------------------------------------|
D:------------------------------------------|
A:------------------------------------------|
E:------------------------------------------|

And in the night, you are my dream
e:----------------10-------------|
B:-13b15-13-11-13---11-----------|
G:--------------------12-1212~---|
D:-------------------------------|
A:-------------------------------|
E:-------------------------------|

You're everything to me
e:---------------------------------------------|
B:------------4-3------------------------------|
G:-2-3-5-3h5------3--5/7\5---------------------|
D:-------------------------5--555-4-5-/7-5h7---|
A:---------------------------------------------|
E:---------------------------------------------|

You're the love of my life
And the breath in my prayers
Take my hand, lead me there
what i need is you here
(play the riff below while singin)
e:--------------------------------------------------------------------------|
B:------------------------6-4--------------3/4-3-4p3-------3-4p3------------|
G:---2-3--5/7\5-2----2-3------2--2-3-5-3h5-----------3---3-------3-5/7\5----|
D:-5---------------5-----------------------------------5-----------------5--|
A:--------------------------------------------------------------------------|
E:--------------------------------------------------------------------------|

e:----------------------15---|
B:-----------------13/15-----|
G:---------------------------|
D:-555-4-5-/7-5h7------------|
A:---------------------------|
E:---------------------------|

I can't forget the taste of your mouth
e:-------------------10-----------|
B:-13b15-13-11-13b15---11---------|
G:-----------------------12-12~---|
D:--------------------------------|
A:--------------------------------|
E:--------------------------------|

From your lips all the heavens pour out
e:----15---------15~~---|
B:-18----18-18br--------|
G:----------------------|
D:----------------------|
A:----------------------|
E:----------------------|

I can't forget when we are one
e:----------------10-----------|
B:-13b15-13-11-13---11-----11--|
G:--------------------12-12----|
D:-----------------------------|
A:-----------------------------|
E:-----------------------------|

It's you alone and I am free
e:------------------------------------------------------------------------|
B:------------4-3-------------------------------6-4----3------------------|
G:-2-3-5-3h5------3--5/7\5------------2~-3-4-5------3----5--------3-2-----|
D:-------------------------5--555-4-5----------------------5--555-----4-5-|
A:------------------------------------------------------------------------|
E:------------------------------------------------------------------------|

e:-----------10-----------------13-11--------------------10h11-10-----10----|
B:----10-11--10-13-10-----10-11-------10--10-11-13-11h13----------11-----13-|
G:-12--------10--------12---------------------------------------------------|
D:--------------------------------------------------------------------------|
A:--------------------------------------------------------------------------|
E:--------------------------------------------------------------------------|

e:------------------------------10------------------------13-11--------------|
B:-----------------10-----10-11-10-13-10h13p10-----10-11--------10--10-11-13-|
G:12--121212-11-12-----12-------10--------------12---------------------------|
D:---------------------------------------------------------------------------|
A:---------------------------------------------------------------------------|
E:---------------------------------------------------------------------------|

e:-------11-10-11p10----------10-11p10----10---------------------------------|
B:-11h13-------------11----11----------11----13------------------10-11-12-13-|
G:----------------------12----------------------12--121212-11-12-------------|
D:---------------------------------------------------------------------------|
A:---------------------------------------------------------------------------|
E:---------------------------------------------------------------------------|

e:-13-11-----10-------------------------------|
B:-------11-----13-----------11-10------------|
G:-----------------12-121212-------11-11h12---|
D:--------------------------------------------|
A:--------------------------------------------|
E:--------------------------------------------|

We go dancing in the moonlight
With the starlight in your eyes
We go dancing till the sunrise
You and me we're gonna dance, dance, dance

SOLO
e:--------------------------------------------------------------------------|
B:------------------------------------3-4-3-4-3-----------------------------|
G:----------------3-------5-7-5--23-5-----------5---5--------------3--------|
D:---7-\5-4-5-4-5---7-6-7-------------------------7------7~\-5-4-5----7-6-7-|
A:-5---------------------------------------------------5--------------------|
E:--------------------------------------------------------------------------|

e:---------------------------------------------------------------------------|
B:------------------------------------10br-(b11)r10--------------------------|
G:-5-h7p5h7p5h7p5h777-888-101010-1212---------------121212~\-----------------|
D:----------------------------------------------------------10/12\10p8-10/12-|
A:---------------------------------------------------------------------------|
E:---------------------------------------------------------------------------|

e:---------------------------------------------------------------------------|
B:----------------10-11-10-13-10-11-11-11p10---------------------------------|
G:-------------12----------------------------12-----------------10-----------|
D:\10p8h10--12----------------------------------12\10-8---10/12---12\10-10p8-|
A:------------------------------------------------------10-------------------|
E:---------------------------------------------------------------------------|

e:---------------------------------------------------------------------------|
B:----------------------------10-11-10h11p10----13-10--10-13-11~-------------|
G:--------------12~p10-----12----------------12------------------12-p10------|
D:h10p8h10-\-12-------(12)----------------------------------------------(12--|
A:---------------------------------------------------------------------------|
E:---------------------------------------------------------------------------|

e:----------------------10--------------------13-10\-------------------------|
B:----10-11-10h11p10-------13-13-10--10-10-13------------10-11-10h11p10---13-|
G:-12----------------12-------------------------------12----------------12---|
D:---------------------------------------------------------------------------|
A:---------------------------------------------------------------------------|
E:---------------------------------------------------------------------------|

e:-------------------------------------------101010/11-11p1011p1011p1011p101-|
B:-10--10-13-11---------10-11-10----11-13-13---------------------------------|
G:--------------12\--12----------12------------------------------------------|
D:---------------------------------------------------------------------------|
A:---------------------------------------------------------------------------|
E:---------------------------------------------------------------------------|

e:1p10-11/12-11/12~~--------------------------------------------------15-17-|
B:------------------11-10------------------------------------------15-------|
G:------------------------12-10------------------10-------------------------|
D:------------------------------12\10-8----10/12---12\10-8-10p8h10----------|
A:--------------------------------------10----------------------------------|
E:--------------------------------------------------------------------------|

e:18-18p17p151718p17p15-18p17p1518p17p1518p17p1518p17p1518p17p15-18^18^18^~~-|
B:---------------------------------------------------------------------------|
G:---------------------------------------------------------------------------|
D:---------------------------------------------------------------------------|
A:---------------------------------------------------------------------------|
E:---------------------------------------------------------------------------|

e:18p15--15-----------------------------------------------------18-20^-20^--|
B:-----18--18-1518p15---------------------------15-----------20-------------|
G:--------------------17-15(b19)r17p15----15-17----17-15-17\----------------|
D:-------------------------------------17-----------------------------------|
A:--------------------------------------------------------------------------|
E:--------------------------------------------------------------------------|

e:---18-20^-20^----18-20^20^-20^-20^-20^-20^20^-\----------------------------|
B:20------------20---------------------------------10/11~----------10-10~10~-|
G:---------------------------------------------------------12~12~12~---------|
D:---------------------------------------------------------------------------|
A:---------------------------------------------------------------------------|
E:---------------------------------------------------------------------------|

e:------10------------------------------------------------------------------|
B:10-13----11-13-------11---------------------------------------------10~~--|
G:---------------12-12-------------------10------------------------12-------|
D:------------------------12\10-8---10/12---12\10-8-10p8h10p8h10\-----------|
A:--------------------------------10----------------------------------------|
E:--------------------------------------------------------------------------|

e:--------------------------10101010101010-11p1010//////11//////11/12/////13-|
B:---------11~~\-10-9-10-13--------------------------------------------------|
G:12-11-12-------------------------------------------------------------------|
D:---------------------------------------------------------------------------|
A:---------------------------------------------------------------------------|
E:---------------------------------------------------------------------------|

e:151515----18-20^//////rb^////////rb^//////////-\-15---1518p15----15-15--15-|
B:-------20------------------------------------------18^--------18----18^----|
G:---------------------------------------------------------------------------|
D:---------------------------------------------------------------------------|
A:---------------------------------------------------------------------------|
E:---------------------------------------------------------------------------|

e:18p15----15-15--15-18p15----15----15---15---15---15-15---------------------|
B:------18----18^----------18----18^--18^--18^--18^---18^p15-18brp15-18brp15-|
G:---------------------------------------------------------------------------|
D:---------------------------------------------------------------------------|
A:---------------------------------------------------------------------------|
E:---------------------------------------------------------------------------|

e:------------------------------------15-18-15h18p15~~----------------------|
B:-18brp15-18brp15-(b18)rp15-18p15-18------------------18-15-15h16p15-------|
G:--------------------------------------------------------------------17-15-|
D:--------------------------------------------------------------------------|
A:--------------------------------------------------------------------------|
E:--------------------------------------------------------------------------|

e:-------------------10-----------------10----------------------------------|
B:---15----------1011---11-11-11-13---11--11-1111p1011p10-------------------|
G:17----17-----12-------------------12--------------------12-10-------------|
D:---------17---------------------------------------------------12\10-8---8-|
A:---------------------------------------------------------------------10---|
E:--------------------------------------------------------------------------|

e:-------------------------------------------10------------------------------|
B:--------------11-11-1111----------11-10-------11-10-13-11-10----11-10---11-|
G:------10-1212------------(12)--12-------12-------------------12-------12---|
D:10/12----------------------------------------------------------------------|
A:---------------------------------------------------------------------------|
E:---------------------------------------------------------------------------|

e:10-1010101010101010--------------------------------------------------------|
B:---1111111111111111-13-----------10br--------------------------------------|
G:-----------------------121212~\------1212----------------------------------|
D:------------------------------------------10/12\10-10-8-10-8-10-8-10/12\10-|
A:---------------------------------------------------------------------------|
E:---------------------------------------------------------------------------|

e:--------------------------------------------------10-10///////11/////12///-|
B:---------------11--11--11--11--11--11-10-13-10-13----10///////11/////12///-|
G:----------10-12--12--12--12--12--12-------------------7///////-8/////-9///-|
D:-8-10\-12------------------------------------------------------------------|
A:---------------------------------------------------------------------------|
E:---------------------------------------------------------------------------|

e:13////////14////////15///////----18-20^-20^-20^-20^-20^-20^-20^-20^-20^---|
B:13////////14////////15///////--20-----------------------------------------|
G:10////////11////////12///////---------------------------------------------|
D:--------------------------------------------------------------------------|
A:--------------------------------------------------------------------------|
E:--------------------------------------------------------------------------|

e:--------------------------3333-333----------------------3333-333----------|
B:15b18(keep picking and ------------66-3--------33----------------66-3-----|
G:------gradually release-----------------333-33---3-5------------------333-|
D:---------the bend)-----------------------------------5--------------------|
A:--------------------------------------------------------------------------|
E:--------------------------------------------------------------------------|

e:--------15-\----|
B:--33----15-\----|
G:33--3-5-12-\----|
D:----------------|
A:----------------|
E:----------------|
Добавлено: 25.09.2013
Другие материалы по этой песне:
  • Аккорды и текст

Страница создана 25.09.2013
http://primanota.ru/carlos-santana/love-of-my-life-live-chords.htm
Привет, Гость.
Предлагаем пройти революционный курс по гитаре.
Подарок от PrimaNota.Ru, забирай!